ISO-10303-21;
HEADER;
FILE_DESCRIPTION (( 'STEP AP203' ),
    '1' );
FILE_NAME ('40704.step',
    '2021-09-02T13:22:34',
    ( '' ),
    ( '' ),
    'SwSTEP 2.0',
    'SolidWorks 2019',
    '' );
FILE_SCHEMA (( 'CONFIG_CONTROL_DESIGN' ));
ENDSEC;

DATA;
#1 = CYLINDRICAL_SURFACE ( 'NONE', #37, 3.050000000000004707 ) ;
#2 = CARTESIAN_POINT ( 'NONE',  ( 0.0000000000000000000, 0.0000000000000000000, 0.0000000000000000000 ) ) ;
#3 = LINE ( 'NONE', #51, #129 ) ;
#4 = DIRECTION ( 'NONE',  ( 3.491481338843133355E-15, -1.224646799147353207E-16, 1.000000000000000000 ) ) ;
#5 = VECTOR ( 'NONE', #99, 999.9999999999998863 ) ;
#6 = VERTEX_POINT ( 'NONE', #47 ) ;
#7 = AXIS2_PLACEMENT_3D ( 'NONE', #24, #227, #255 ) ;
#8 = ADVANCED_FACE ( 'NONE', ( #139 ), #307, .T. ) ;
#9 = ORIENTED_EDGE ( 'NONE', *, *, #294, .F. ) ;
#10 = CALENDAR_DATE ( 2021, 2, 9 ) ;
#11 = CC_DESIGN_PERSON_AND_ORGANIZATION_ASSIGNMENT ( #159, #267, ( #312 ) ) ;
#12 = AXIS2_PLACEMENT_3D ( 'NONE', #202, #4, #196 ) ;
#13 = ORIENTED_EDGE ( 'NONE', *, *, #48, .F. ) ;
#14 = VERTEX_POINT ( 'NONE', #100 ) ;
#15 = DATE_AND_TIME ( #43, #69 ) ;
#16 = EDGE_LOOP ( 'NONE', ( #32, #292, #45, #241 ) ) ;
#17 = APPROVAL_DATE_TIME ( #15, #151 ) ;
#18 = CARTESIAN_POINT ( 'NONE',  ( 2.199633243471174140E-13, -7.715274834628325378E-15, 63.00000000000000000 ) ) ;
#19 = EDGE_LOOP ( 'NONE', ( #9, #66, #216, #13 ) ) ;
#20 = DATE_AND_TIME ( #295, #270 ) ;
#21 = CARTESIAN_POINT ( 'NONE',  ( 3.735172737399420244E-16, -3.050000000000004707, -3.735172737399445882E-16 ) ) ;
#22 = CARTESIAN_POINT ( 'NONE',  ( 6.398575597670462918E-15, -2.244318203168707805E-16, 1.832624888034075861 ) ) ;
#23 = APPROVAL_STATUS ( 'not_yet_approved' ) ;
#24 = CARTESIAN_POINT ( 'NONE',  ( 6.398575597670462918E-15, -2.244318203168707805E-16, 1.832624888034075861 ) ) ;
#25 = CIRCLE ( 'NONE', #293, 3.050000000000002487 ) ;
#26 = CC_DESIGN_APPROVAL ( #116, ( #288 ) ) ;
#27 = DIRECTION ( 'NONE',  ( -3.491481338843133355E-15, 1.224646799147353207E-16, -1.000000000000000000 ) ) ;
#28 = EDGE_CURVE ( 'NONE', #183, #264, #215, .T. ) ;
#29 = APPROVAL_PERSON_ORGANIZATION ( #164, #83, #280 ) ;
#30 = LINE ( 'NONE', #221, #5 ) ;
#31 = CIRCLE ( 'NONE', #300, 3.050000000000006484 ) ;
#32 = ORIENTED_EDGE ( 'NONE', *, *, #297, .T. ) ;
#33 = ADVANCED_FACE ( 'NONE', ( #68 ), #63, .T. ) ;
#34 = MANIFOLD_SOLID_BREP ( 'Corps-Déplacer/Copier1[2]', #213 ) ;
#35 = CIRCLE ( 'NONE', #180, 3.050000000000002487 ) ;
#36 = ADVANCED_FACE ( 'NONE', ( #171 ), #155, .T. ) ;
#37 = AXIS2_PLACEMENT_3D ( 'NONE', #195, #138, #308 ) ;
#38 = ORIENTED_EDGE ( 'NONE', *, *, #182, .T. ) ;
#39 = PERSON_AND_ORGANIZATION ( #236, #194 ) ;
#40 =( NAMED_UNIT ( * ) SI_UNIT ( $, .STERADIAN. ) SOLID_ANGLE_UNIT ( ) );
#41 = ORIENTED_EDGE ( 'NONE', *, *, #306, .T. ) ;
#42 = ORIENTED_EDGE ( 'NONE', *, *, #253, .F. ) ;
#43 = CALENDAR_DATE ( 2021, 2, 9 ) ;
#44 = DIRECTION ( 'NONE',  ( 1.798245827342160317E-15, -0.8571673007021098911, 0.5150380749100582634 ) ) ;
#45 = ORIENTED_EDGE ( 'NONE', *, *, #28, .F. ) ;
#46 = LINE ( 'NONE', #170, #208 ) ;
#47 = CARTESIAN_POINT ( 'NONE',  ( 2.199633243471174140E-13, 3.049999999999994493, 63.00000000000000000 ) ) ;
#48 = EDGE_CURVE ( 'NONE', #158, #302, #35, .T. ) ;
#49 = DIRECTION ( 'NONE',  ( -3.491481338843133355E-15, 1.224646799147353207E-16, -1.000000000000000000 ) ) ;
#50 = PRODUCT_DEFINITION_SHAPE ( 'NONE', 'NONE',  #288 ) ;
#51 = CARTESIAN_POINT ( 'NONE',  ( 1.304128590998574223E-30, 3.050000000000004707, 3.735172737399432570E-16 ) ) ;
#52 = FACE_OUTER_BOUND ( 'NONE', #19, .T. ) ;
#53 = LOCAL_TIME ( 15, 22, 34.00000000000000000, #328 ) ;
#54 = LINE ( 'NONE', #309, #266 ) ;
#55 = EDGE_LOOP ( 'NONE', ( #206, #42 ) ) ;
#56 = DIRECTION ( 'NONE',  ( 0.0000000000000000000, 1.000000000000000000, 0.0000000000000000000 ) ) ;
#57 = AXIS2_PLACEMENT_3D ( 'NONE', #127, #176, #147 ) ;
#58 = ORIENTED_EDGE ( 'NONE', *, *, #154, .F. ) ;
#59 = ADVANCED_FACE ( 'NONE', ( #313 ), #260, .T. ) ;
#60 = AXIS2_PLACEMENT_3D ( 'NONE', #77, #287, #56 ) ;
#61 = EDGE_CURVE ( 'NONE', #6, #183, #54, .T. ) ;
#62 = LOCAL_TIME ( 15, 22, 34.00000000000000000, #114 ) ;
#63 = CONICAL_SURFACE ( 'NONE', #257, 3.049999999999994937, 1.029744258676649649 ) ;
#64 = ORIENTED_EDGE ( 'NONE', *, *, #108, .T. ) ;
#65 = LINE ( 'NONE', #246, #102 ) ;
#66 = ORIENTED_EDGE ( 'NONE', *, *, #154, .T. ) ;
#67 = DIRECTION ( 'NONE',  ( -3.491481338843133355E-15, 1.224646799147353207E-16, -1.000000000000000000 ) ) ;
#68 = FACE_OUTER_BOUND ( 'NONE', #220, .T. ) ;
#69 = LOCAL_TIME ( 15, 22, 34.00000000000000000, #95 ) ;
#70 = LINE ( 'NONE', #90, #232 ) ;
#71 = DIRECTION ( 'NONE',  ( -3.491481338843133355E-15, 1.224646799147353207E-16, -1.000000000000000000 ) ) ;
#72 = CARTESIAN_POINT ( 'NONE',  ( 2.199633243471174140E-13, -7.715274834628325378E-15, 63.00000000000000000 ) ) ;
#73 = DIRECTION ( 'NONE',  ( 0.0000000000000000000, 1.000000000000000000, 0.0000000000000000000 ) ) ;
#74 = CARTESIAN_POINT ( 'NONE',  ( 3.526396152231565067E-13, -1.236893267138826732E-14, 101.0000000000000000 ) ) ;
#75 = CIRCLE ( 'NONE', #7, 3.049999999999994937 ) ;
#76 = CONICAL_SURFACE ( 'NONE', #289, 2.350000000000007194, 0.7853981633974437271 ) ;
#77 = CARTESIAN_POINT ( 'NONE',  ( 3.526396152231565067E-13, -1.236893267138826732E-14, 101.0000000000000000 ) ) ;
#78 = ADVANCED_FACE ( 'NONE', ( #249 ), #76, .T. ) ;
#79 = EDGE_CURVE ( 'NONE', #332, #269, #144, .T. ) ;
#80 = PERSON_AND_ORGANIZATION_ROLE ( 'classification_officer' ) ;
#81 = ADVANCED_FACE ( 'NONE', ( #52 ), #143, .T. ) ;
#82 = DATE_AND_TIME ( #10, #317 ) ;
#83 = APPROVAL ( #172, 'UNSPECIFIED' ) ;
#84 = AXIS2_PLACEMENT_3D ( 'NONE', #160, #240, #109 ) ;
#85 = ORIENTED_EDGE ( 'NONE', *, *, #210, .T. ) ;
#86 = CC_DESIGN_APPROVAL ( #83, ( #111 ) ) ;
#87 = PERSON_AND_ORGANIZATION ( #236, #194 ) ;
#88 = EDGE_LOOP ( 'NONE', ( #132, #247, #161 ) ) ;
#89 = COORDINATED_UNIVERSAL_TIME_OFFSET ( 1, 0, .AHEAD. ) ;
#90 = CARTESIAN_POINT ( 'NONE',  ( 3.529274072209561129E-13, -2.350000000000019629, 101.0000000000000000 ) ) ;
#91 = PLANE ( 'NONE',  #126 ) ;
#92 = EDGE_CURVE ( 'NONE', #269, #332, #192, .T. ) ;
#93 = DIRECTION ( 'NONE',  ( 0.0000000000000000000, 1.000000000000000000, 0.0000000000000000000 ) ) ;
#94 = CIRCLE ( 'NONE', #153, 3.050000000000006484 ) ;
#95 = COORDINATED_UNIVERSAL_TIME_OFFSET ( 1, 0, .AHEAD. ) ;
#96 = APPROVAL_DATE_TIME ( #250, #83 ) ;
#97 = LINE ( 'NONE', #298, #179 ) ;
#98 = DIRECTION ( 'NONE',  ( 3.491481338843133355E-15, -1.224646799147353207E-16, 1.000000000000000000 ) ) ;
#99 = DIRECTION ( 'NONE',  ( 1.903218546456022717E-15, 0.8571673007021097801, 0.5150380749100585964 ) ) ;
#100 = CARTESIAN_POINT ( 'NONE',  ( 0.0000000000000000000, 0.0000000000000000000, 0.0000000000000000000 ) ) ;
#101 = DIRECTION ( 'NONE',  ( -3.491481338843133355E-15, 1.224646799147353207E-16, -1.000000000000000000 ) ) ;
#102 = VECTOR ( 'NONE', #142, 1000.000000000000000 ) ;
#103 = ADVANCED_FACE ( 'NONE', ( #315 ), #203, .T. ) ;
#104 = CLOSED_SHELL ( 'NONE', ( #103, #207, #150, #81, #78, #326 ) ) ;
#105 = DIRECTION ( 'NONE',  ( -3.491481338843133355E-15, 1.224646799147353207E-16, -1.000000000000000000 ) ) ;
#106 = EDGE_LOOP ( 'NONE', ( #235, #296 ) ) ;
#107 = AXIS2_PLACEMENT_3D ( 'NONE', #156, #321, #325 ) ;
#108 = EDGE_CURVE ( 'NONE', #185, #113, #94, .T. ) ;
#109 = DIRECTION ( 'NONE',  ( 4.275831445896958607E-31, 1.000000000000000000, 1.224646799147353207E-16 ) ) ;
#110 = ORIENTED_EDGE ( 'NONE', *, *, #210, .F. ) ;
#111 = SECURITY_CLASSIFICATION ( '', '', #228 ) ;
#112 = ORIENTED_EDGE ( 'NONE', *, *, #253, .T. ) ;
#113 = VERTEX_POINT ( 'NONE', #191 ) ;
#114 = COORDINATED_UNIVERSAL_TIME_OFFSET ( 1, 0, .AHEAD. ) ;
#115 = ORIENTED_EDGE ( 'NONE', *, *, #128, .F. ) ;
#116 = APPROVAL ( #244, 'UNSPECIFIED' ) ;
#117 = DIRECTION ( 'NONE',  ( 0.0000000000000000000, 1.000000000000000000, 0.0000000000000000000 ) ) ;
#118 = ORIENTED_EDGE ( 'NONE', *, *, #201, .F. ) ;
#119 = PERSON_AND_ORGANIZATION_ROLE ( 'design_owner' ) ;
#120 = DIRECTION ( 'NONE',  ( -3.491481338843133355E-15, 1.224646799147353207E-16, -1.000000000000000000 ) ) ;
#121 = DIRECTION ( 'NONE',  ( -3.491481338843133355E-15, 1.224646799147353207E-16, -1.000000000000000000 ) ) ;
#122 = CARTESIAN_POINT ( 'NONE',  ( 2.854529685902818015E-13, -3.050000000000010036, 63.00000000000000000 ) ) ;
#123 = PERSON_AND_ORGANIZATION ( #236, #194 ) ;
#124 = CARTESIAN_POINT ( 'NONE',  ( 1.135544672461336427E-13, -3.050000000000010036, 63.00000000000000000 ) ) ;
#125 = DIRECTION ( 'NONE',  ( 3.491481338843133355E-15, -1.224646799147353207E-16, 1.000000000000000000 ) ) ;
#126 = AXIS2_PLACEMENT_3D ( 'NONE', #301, #258, #305 ) ;
#127 = CARTESIAN_POINT ( 'NONE',  ( 0.0000000000000000000, 0.0000000000000000000, 0.0000000000000000000 ) ) ;
#128 = EDGE_CURVE ( 'NONE', #185, #302, #3, .T. ) ;
#129 = VECTOR ( 'NONE', #67, 1000.000000000000000 ) ;
#130 = DESIGN_CONTEXT ( 'detailed design', #265, 'design' ) ;
#131 = PERSON_AND_ORGANIZATION_ROLE ( 'design_supplier' ) ;
#132 = ORIENTED_EDGE ( 'NONE', *, *, #182, .F. ) ;
#133 = PERSON_AND_ORGANIZATION_ROLE ( 'creator' ) ;
#134 = PERSON_AND_ORGANIZATION ( #236, #194 ) ;
#135 = CARTESIAN_POINT ( 'NONE',  ( 3.501955782859662818E-13, 3.049999999999994493, 100.2999999999999972 ) ) ;
#136 = AXIS2_PLACEMENT_3D ( 'NONE', #275, #121, #256 ) ;
#137 = APPROVAL_PERSON_ORGANIZATION ( #303, #151, #336 ) ;
#138 = DIRECTION ( 'NONE',  ( -3.491481338843133355E-15, 1.224646799147353207E-16, -1.000000000000000000 ) ) ;
#139 = FACE_OUTER_BOUND ( 'NONE', #16, .T. ) ;
#140 = CARTESIAN_POINT ( 'NONE',  ( 2.199633243471174140E-13, 3.049999999999994493, 63.00000000000000000 ) ) ;
#141 = SHAPE_DEFINITION_REPRESENTATION ( #50, #234 ) ;
#142 = DIRECTION ( 'NONE',  ( -2.468850131082276388E-15, 0.7071067811865443531, -0.7071067811865506814 ) ) ;
#143 = CYLINDRICAL_SURFACE ( 'NONE', #57, 3.050000000000004707 ) ;
#144 = CIRCLE ( 'NONE', #136, 2.350000000000007194 ) ;
#145 = CYLINDRICAL_SURFACE ( 'NONE', #335, 3.049999999999998934 ) ;
#146 = EDGE_CURVE ( 'NONE', #14, #183, #30, .T. ) ;
#147 = DIRECTION ( 'NONE',  ( 4.275831445896957731E-31, 1.000000000000000000, 1.224646799147352961E-16 ) ) ;
#148 = PRODUCT ( '40704', '40704', '', ( #290 ) ) ;
#149 = DIRECTION ( 'NONE',  ( -5.051619526261610364E-31, -1.000000000000000000, -1.421904488505581873E-16 ) ) ;
#150 = ADVANCED_FACE ( 'NONE', ( #165 ), #91, .F. ) ;
#151 = APPROVAL ( #23, 'UNSPECIFIED' ) ;
#152 = EDGE_LOOP ( 'NONE', ( #239, #299 ) ) ;
#153 = AXIS2_PLACEMENT_3D ( 'NONE', #205, #274, #283 ) ;
#154 = EDGE_CURVE ( 'NONE', #113, #185, #31, .T. ) ;
#155 = CONICAL_SURFACE ( 'NONE', #204, 3.049999999999994937, 1.029744258676649649 ) ;
#156 = CARTESIAN_POINT ( 'NONE',  ( 0.0000000000000000000, 0.0000000000000000000, 0.0000000000000000000 ) ) ;
#157 = CC_DESIGN_PERSON_AND_ORGANIZATION_ASSIGNMENT ( #39, #131, ( #312 ) ) ;
#158 = VERTEX_POINT ( 'NONE', #122 ) ;
#159 = PERSON_AND_ORGANIZATION ( #236, #194 ) ;
#160 = CARTESIAN_POINT ( 'NONE',  ( 3.526396152231565067E-13, 1.762217744627669005E-32, 101.0000000000000000 ) ) ;
#161 = ORIENTED_EDGE ( 'NONE', *, *, #28, .T. ) ;
#162 = APPROVAL_DATE_TIME ( #20, #116 ) ;
#163 = ORIENTED_EDGE ( 'NONE', *, *, #178, .F. ) ;
#164 = PERSON_AND_ORGANIZATION ( #236, #194 ) ;
#165 = FACE_OUTER_BOUND ( 'NONE', #106, .T. ) ;
#166 = EDGE_LOOP ( 'NONE', ( #285, #187, #218, #110 ) ) ;
#167 = DIRECTION ( 'NONE',  ( -2.382254525458728119E-15, -0.7071067811865441310, -0.7071067811865507924 ) ) ;
#168 = DIRECTION ( 'NONE',  ( -5.051619526261610364E-31, -1.000000000000000000, -1.421904488505581873E-16 ) ) ;
#169 = CC_DESIGN_SECURITY_CLASSIFICATION ( #111, ( #312 ) ) ;
#170 = CARTESIAN_POINT ( 'NONE',  ( 6.398575597670461341E-15, -3.049999999999995381, 1.832624888034075417 ) ) ;
#171 = FACE_OUTER_BOUND ( 'NONE', #88, .T. ) ;
#172 = APPROVAL_STATUS ( 'not_yet_approved' ) ;
#173 = DIRECTION ( 'NONE',  ( -3.491481338843133355E-15, 1.224646799147353207E-16, -1.000000000000000000 ) ) ;
#174 = DIRECTION ( 'NONE',  ( -3.491481338843133355E-15, 1.224646799147353207E-16, -1.000000000000000000 ) ) ;
#175 = DIRECTION ( 'NONE',  ( -3.491481338843133355E-15, 1.224646799147353207E-16, -1.000000000000000000 ) ) ;
#176 = DIRECTION ( 'NONE',  ( -3.491481338843133355E-15, 1.224646799147353207E-16, -1.000000000000000000 ) ) ;
#177 = DIRECTION ( 'NONE',  ( 0.0000000000000000000, 1.000000000000000000, 0.0000000000000000000 ) ) ;
#178 = EDGE_CURVE ( 'NONE', #332, #113, #70, .T. ) ;
#179 = VECTOR ( 'NONE', #310, 1000.000000000000000 ) ;
#180 = AXIS2_PLACEMENT_3D ( 'NONE', #282, #101, #311 ) ;
#181 = CC_DESIGN_PERSON_AND_ORGANIZATION_ASSIGNMENT ( #123, #80, ( #111 ) ) ;
#182 = EDGE_CURVE ( 'NONE', #14, #264, #46, .T. ) ;
#183 = VERTEX_POINT ( 'NONE', #337 ) ;
#184 = VECTOR ( 'NONE', #175, 1000.000000000000000 ) ;
#185 = VERTEX_POINT ( 'NONE', #135 ) ;
#186 = DIRECTION ( 'NONE',  ( 0.0000000000000000000, 1.000000000000000000, 0.0000000000000000000 ) ) ;
#187 = ORIENTED_EDGE ( 'NONE', *, *, #178, .T. ) ;
#188 = FACE_OUTER_BOUND ( 'NONE', #222, .T. ) ;
#189 = VERTEX_POINT ( 'NONE', #124 ) ;
#190 = APPROVAL_ROLE ( '' ) ;
#191 = CARTESIAN_POINT ( 'NONE',  ( 2.854529685902817005E-13, -3.050000000000018474, 100.2999999999999972 ) ) ;
#192 = CIRCLE ( 'NONE', #284, 2.350000000000007194 ) ;
#193 = PERSON_AND_ORGANIZATION ( #236, #194 ) ;
#194 = ORGANIZATION ( 'UNSPECIFIED', 'UNSPECIFIED', '' ) ;
#195 = CARTESIAN_POINT ( 'NONE',  ( 0.0000000000000000000, 0.0000000000000000000, 0.0000000000000000000 ) ) ;
#196 = DIRECTION ( 'NONE',  ( -4.275831445896958607E-31, -1.000000000000000000, -1.224646799147353207E-16 ) ) ;
#197 = ADVANCED_FACE ( 'NONE', ( #281 ), #145, .T. ) ;
#198 = APPLICATION_PROTOCOL_DEFINITION ( 'international standard', 'config_control_design', 1994, #265 ) ;
#199 = DIRECTION ( 'NONE',  ( 4.275831445896958607E-31, 1.000000000000000000, 1.224646799147353207E-16 ) ) ;
#200 = CARTESIAN_POINT ( 'NONE',  ( 6.398575597670462918E-15, -2.244318203168707805E-16, 1.832624888034075861 ) ) ;
#201 = EDGE_CURVE ( 'NONE', #189, #264, #97, .T. ) ;
#202 = CARTESIAN_POINT ( 'NONE',  ( 2.199633243471174140E-13, 2.287133668559322999E-32, 63.00000000000000000 ) ) ;
#203 = CONICAL_SURFACE ( 'NONE', #60, 2.350000000000007194, 0.7853981633974437271 ) ;
#204 = AXIS2_PLACEMENT_3D ( 'NONE', #22, #98, #149 ) ;
#205 = CARTESIAN_POINT ( 'NONE',  ( 3.501955782859662818E-13, -1.228320739544795303E-14, 100.2999999999999972 ) ) ;
#206 = ORIENTED_EDGE ( 'NONE', *, *, #297, .F. ) ;
#207 = ADVANCED_FACE ( 'NONE', ( #188 ), #1, .T. ) ;
#208 = VECTOR ( 'NONE', #44, 1000.000000000000000 ) ;
#209 = CIRCLE ( 'NONE', #254, 3.050000000000002487 ) ;
#210 = EDGE_CURVE ( 'NONE', #269, #185, #65, .T. ) ;
#211 = CARTESIAN_POINT ( 'NONE',  ( 3.517482513903311615E-13, -2.350000000000019629, 101.0000000000000000 ) ) ;
#212 =( LENGTH_UNIT ( ) NAMED_UNIT ( * ) SI_UNIT ( .MILLI., .METRE. ) );
#213 = CLOSED_SHELL ( 'NONE', ( #8, #36, #33, #197, #59 ) ) ;
#214 = CC_DESIGN_DATE_AND_TIME_ASSIGNMENT ( #82, #243, ( #111 ) ) ;
#215 = CIRCLE ( 'NONE', #316, 3.049999999999994937 ) ;
#216 = ORIENTED_EDGE ( 'NONE', *, *, #128, .T. ) ;
#217 = CC_DESIGN_DATE_AND_TIME_ASSIGNMENT ( #242, #226, ( #288 ) ) ;
#218 = ORIENTED_EDGE ( 'NONE', *, *, #108, .F. ) ;
#219 = AXIS2_PLACEMENT_3D ( 'NONE', #224, #173, #333 ) ;
#220 = EDGE_LOOP ( 'NONE', ( #271, #38, #41 ) ) ;
#221 = CARTESIAN_POINT ( 'NONE',  ( 6.772092871410406225E-15, 3.049999999999994493, 1.832624888034076305 ) ) ;
#222 = EDGE_LOOP ( 'NONE', ( #64, #252, #261, #115 ) ) ;
#223 = CALENDAR_DATE ( 2021, 2, 9 ) ;
#224 = CARTESIAN_POINT ( 'NONE',  ( 2.199633243471174140E-13, -7.715274834628325378E-15, 63.00000000000000000 ) ) ;
#225 = ORIENTED_EDGE ( 'NONE', *, *, #306, .F. ) ;
#226 = DATE_TIME_ROLE ( 'creation_date' ) ;
#227 = DIRECTION ( 'NONE',  ( -3.491481338843133355E-15, 1.224646799147353207E-16, -1.000000000000000000 ) ) ;
#228 = SECURITY_CLASSIFICATION_LEVEL ( 'unclassified' ) ;
#229 = FACE_OUTER_BOUND ( 'NONE', #152, .T. ) ;
#230 = CARTESIAN_POINT ( 'NONE',  ( 0.0000000000000000000, 0.0000000000000000000, 0.0000000000000000000 ) ) ;
#231 = CARTESIAN_POINT ( 'NONE',  ( 6.398575597670462918E-15, -2.244318203168707805E-16, 1.832624888034075861 ) ) ;
#232 = VECTOR ( 'NONE', #167, 1000.000000000000000 ) ;
#233 = DIRECTION ( 'NONE',  ( -3.491481338843133355E-15, 1.224646799147353207E-16, -1.000000000000000000 ) ) ;
#234 = ADVANCED_BREP_SHAPE_REPRESENTATION ( '40704', ( #245, #34, #107 ), #318 ) ;
#235 = ORIENTED_EDGE ( 'NONE', *, *, #262, .T. ) ;
#236 = PERSON ( 'UNSPECIFIED', 'UNSPECIFIED', 'UNSPECIFIED', ('UNSPECIFIED'), ('UNSPECIFIED'), ('UNSPECIFIED') ) ;
#237 = UNCERTAINTY_MEASURE_WITH_UNIT (LENGTH_MEASURE( 1.000000000000000082E-05 ), #212, 'distance_accuracy_value', 'NONE');
#238 = PLANE ( 'NONE',  #84 ) ;
#239 = ORIENTED_EDGE ( 'NONE', *, *, #92, .F. ) ;
#240 = DIRECTION ( 'NONE',  ( -3.491481338843133355E-15, 1.224646799147353207E-16, -1.000000000000000000 ) ) ;
#241 = ORIENTED_EDGE ( 'NONE', *, *, #61, .F. ) ;
#242 = DATE_AND_TIME ( #223, #53 ) ;
#243 = DATE_TIME_ROLE ( 'classification_date' ) ;
#244 = APPROVAL_STATUS ( 'not_yet_approved' ) ;
#245 = MANIFOLD_SOLID_BREP ( 'Corps-Déplacer/Copier1[1]', #104 ) ;
#246 = CARTESIAN_POINT ( 'NONE',  ( 3.526396152231565067E-13, 2.349999999999994316, 101.0000000000000000 ) ) ;
#247 = ORIENTED_EDGE ( 'NONE', *, *, #146, .T. ) ;
#248 = CARTESIAN_POINT ( 'NONE',  ( 3.526396152231565067E-13, 2.349999999999994316, 101.0000000000000000 ) ) ;
#249 = FACE_OUTER_BOUND ( 'NONE', #324, .T. ) ;
#250 = DATE_AND_TIME ( #304, #62 ) ;
#251 = LINE ( 'NONE', #21, #184 ) ;
#252 = ORIENTED_EDGE ( 'NONE', *, *, #294, .T. ) ;
#253 = EDGE_CURVE ( 'NONE', #189, #6, #25, .T. ) ;
#254 = AXIS2_PLACEMENT_3D ( 'NONE', #18, #49, #117 ) ;
#255 = DIRECTION ( 'NONE',  ( 5.051619526261610364E-31, 1.000000000000000000, 1.421904488505581873E-16 ) ) ;
#256 = DIRECTION ( 'NONE',  ( 0.0000000000000000000, 1.000000000000000000, 0.0000000000000000000 ) ) ;
#257 = AXIS2_PLACEMENT_3D ( 'NONE', #231, #125, #168 ) ;
#258 = DIRECTION ( 'NONE',  ( 3.491481338843133355E-15, -1.224646799147353207E-16, 1.000000000000000000 ) ) ;
#259 = CARTESIAN_POINT ( 'NONE',  ( 3.526396152231565067E-13, -1.236893267138826732E-14, 101.0000000000000000 ) ) ;
#260 = PLANE ( 'NONE',  #12 ) ;
#261 = ORIENTED_EDGE ( 'NONE', *, *, #262, .F. ) ;
#262 = EDGE_CURVE ( 'NONE', #302, #158, #209, .T. ) ;
#263 = APPROVAL_PERSON_ORGANIZATION ( #87, #116, #190 ) ;
#264 = VERTEX_POINT ( 'NONE', #331 ) ;
#265 = APPLICATION_CONTEXT ( 'configuration controlled 3d designs of mechanical parts and assemblies' ) ;
#266 = VECTOR ( 'NONE', #277, 1000.000000000000000 ) ;
#267 = PERSON_AND_ORGANIZATION_ROLE ( 'creator' ) ;
#268 = COORDINATED_UNIVERSAL_TIME_OFFSET ( 1, 0, .AHEAD. ) ;
#269 = VERTEX_POINT ( 'NONE', #248 ) ;
#270 = LOCAL_TIME ( 15, 22, 34.00000000000000000, #89 ) ;
#271 = ORIENTED_EDGE ( 'NONE', *, *, #146, .F. ) ;
#272 = CARTESIAN_POINT ( 'NONE',  ( 3.501955782859662818E-13, -1.228320739544795303E-14, 100.2999999999999972 ) ) ;
#273 = ORIENTED_EDGE ( 'NONE', *, *, #79, .T. ) ;
#274 = DIRECTION ( 'NONE',  ( -3.491481338843133355E-15, 1.224646799147353207E-16, -1.000000000000000000 ) ) ;
#275 = CARTESIAN_POINT ( 'NONE',  ( 3.526396152231565067E-13, -1.236893267138826732E-14, 101.0000000000000000 ) ) ;
#276 = DIRECTION ( 'NONE',  ( -3.491481338843133355E-15, 1.224646799147353207E-16, -1.000000000000000000 ) ) ;
#277 = DIRECTION ( 'NONE',  ( -3.491481338843133355E-15, 1.224646799147353207E-16, -1.000000000000000000 ) ) ;
#278 = APPLICATION_CONTEXT ( 'configuration controlled 3d designs of mechanical parts and assemblies' ) ;
#279 = CC_DESIGN_PERSON_AND_ORGANIZATION_ASSIGNMENT ( #193, #133, ( #288 ) ) ;
#280 = APPROVAL_ROLE ( '' ) ;
#281 = FACE_OUTER_BOUND ( 'NONE', #330, .T. ) ;
#282 = CARTESIAN_POINT ( 'NONE',  ( 2.199633243471174140E-13, -7.715274834628325378E-15, 63.00000000000000000 ) ) ;
#283 = DIRECTION ( 'NONE',  ( 0.0000000000000000000, 1.000000000000000000, 0.0000000000000000000 ) ) ;
#284 = AXIS2_PLACEMENT_3D ( 'NONE', #259, #233, #177 ) ;
#285 = ORIENTED_EDGE ( 'NONE', *, *, #92, .T. ) ;
#286 = DIRECTION ( 'NONE',  ( 4.275831445896958607E-31, 1.000000000000000000, 1.224646799147353207E-16 ) ) ;
#287 = DIRECTION ( 'NONE',  ( -3.491481338843133355E-15, 1.224646799147353207E-16, -1.000000000000000000 ) ) ;
#288 = PRODUCT_DEFINITION ( 'UNKNOWN', '', #312, #130 ) ;
#289 = AXIS2_PLACEMENT_3D ( 'NONE', #74, #174, #93 ) ;
#290 = MECHANICAL_CONTEXT ( 'NONE', #278, 'mechanical' ) ;
#291 =( NAMED_UNIT ( * ) PLANE_ANGLE_UNIT ( ) SI_UNIT ( $, .RADIAN. ) );
#292 = ORIENTED_EDGE ( 'NONE', *, *, #201, .T. ) ;
#293 = AXIS2_PLACEMENT_3D ( 'NONE', #72, #276, #73 ) ;
#294 = EDGE_CURVE ( 'NONE', #113, #158, #251, .T. ) ;
#295 = CALENDAR_DATE ( 2021, 2, 9 ) ;
#296 = ORIENTED_EDGE ( 'NONE', *, *, #48, .T. ) ;
#297 = EDGE_CURVE ( 'NONE', #6, #189, #327, .T. ) ;
#298 = CARTESIAN_POINT ( 'NONE',  ( 3.735172737399412848E-16, -3.049999999999998934, -3.735172737399438486E-16 ) ) ;
#299 = ORIENTED_EDGE ( 'NONE', *, *, #79, .F. ) ;
#300 = AXIS2_PLACEMENT_3D ( 'NONE', #272, #120, #186 ) ;
#301 = CARTESIAN_POINT ( 'NONE',  ( 2.199633243471174140E-13, 2.287133668559322999E-32, 63.00000000000000000 ) ) ;
#302 = VERTEX_POINT ( 'NONE', #140 ) ;
#303 = PERSON_AND_ORGANIZATION ( #236, #194 ) ;
#304 = CALENDAR_DATE ( 2021, 2, 9 ) ;
#305 = DIRECTION ( 'NONE',  ( -4.275831445896958607E-31, -1.000000000000000000, -1.224646799147353207E-16 ) ) ;
#306 = EDGE_CURVE ( 'NONE', #264, #183, #75, .T. ) ;
#307 = CYLINDRICAL_SURFACE ( 'NONE', #322, 3.049999999999998934 ) ;
#308 = DIRECTION ( 'NONE',  ( 4.275831445896957731E-31, 1.000000000000000000, 1.224646799147352961E-16 ) ) ;
#309 = CARTESIAN_POINT ( 'NONE',  ( 1.304128590998571946E-30, 3.049999999999998934, 3.735172737399426160E-16 ) ) ;
#310 = DIRECTION ( 'NONE',  ( -3.491481338843133355E-15, 1.224646799147353207E-16, -1.000000000000000000 ) ) ;
#311 = DIRECTION ( 'NONE',  ( 0.0000000000000000000, 1.000000000000000000, 0.0000000000000000000 ) ) ;
#312 = PRODUCT_DEFINITION_FORMATION_WITH_SPECIFIED_SOURCE ( 'ANY', '', #148, .NOT_KNOWN. ) ;
#313 = FACE_OUTER_BOUND ( 'NONE', #55, .T. ) ;
#314 = CC_DESIGN_PERSON_AND_ORGANIZATION_ASSIGNMENT ( #134, #119, ( #148 ) ) ;
#315 = FACE_OUTER_BOUND ( 'NONE', #166, .T. ) ;
#316 = AXIS2_PLACEMENT_3D ( 'NONE', #200, #71, #334 ) ;
#317 = LOCAL_TIME ( 15, 22, 34.00000000000000000, #268 ) ;
#318 =( GEOMETRIC_REPRESENTATION_CONTEXT ( 3 ) GLOBAL_UNCERTAINTY_ASSIGNED_CONTEXT ( ( #237 ) ) GLOBAL_UNIT_ASSIGNED_CONTEXT ( ( #212, #291, #40 ) ) REPRESENTATION_CONTEXT ( 'NONE', 'WORKASPACE' ) );
#319 = PRODUCT_RELATED_PRODUCT_CATEGORY ( 'detail', '', ( #148 ) ) ;
#320 = APPLICATION_PROTOCOL_DEFINITION ( 'international standard', 'config_control_design', 1994, #278 ) ;
#321 = DIRECTION ( 'NONE',  ( 0.0000000000000000000, 0.0000000000000000000, 1.000000000000000000 ) ) ;
#322 = AXIS2_PLACEMENT_3D ( 'NONE', #2, #105, #286 ) ;
#323 = ORIENTED_EDGE ( 'NONE', *, *, #61, .T. ) ;
#324 = EDGE_LOOP ( 'NONE', ( #163, #273, #85, #58 ) ) ;
#325 = DIRECTION ( 'NONE',  ( 1.000000000000000000, 0.0000000000000000000, 0.0000000000000000000 ) ) ;
#326 = ADVANCED_FACE ( 'NONE', ( #229 ), #238, .F. ) ;
#327 = CIRCLE ( 'NONE', #219, 3.050000000000002487 ) ;
#328 = COORDINATED_UNIVERSAL_TIME_OFFSET ( 1, 0, .AHEAD. ) ;
#329 = CC_DESIGN_APPROVAL ( #151, ( #312 ) ) ;
#330 = EDGE_LOOP ( 'NONE', ( #118, #112, #323, #225 ) ) ;
#331 = CARTESIAN_POINT ( 'NONE',  ( 6.398575597670461341E-15, -3.049999999999995381, 1.832624888034075417 ) ) ;
#332 = VERTEX_POINT ( 'NONE', #211 ) ;
#333 = DIRECTION ( 'NONE',  ( 0.0000000000000000000, 1.000000000000000000, 0.0000000000000000000 ) ) ;
#334 = DIRECTION ( 'NONE',  ( 5.051619526261610364E-31, 1.000000000000000000, 1.421904488505581873E-16 ) ) ;
#335 = AXIS2_PLACEMENT_3D ( 'NONE', #230, #27, #199 ) ;
#336 = APPROVAL_ROLE ( '' ) ;
#337 = CARTESIAN_POINT ( 'NONE',  ( 6.772092871410406225E-15, 3.049999999999994493, 1.832624888034076305 ) ) ;
ENDSEC;
END-ISO-10303-21;
