ISO-10303-21;
HEADER;
FILE_DESCRIPTION (( 'STEP AP203' ),
    '1' );
FILE_NAME ('40658.step',
    '2021-09-02T13:22:31',
    ( '' ),
    ( '' ),
    'SwSTEP 2.0',
    'SolidWorks 2019',
    '' );
FILE_SCHEMA (( 'CONFIG_CONTROL_DESIGN' ));
ENDSEC;

DATA;
#1 = DIRECTION ( 'NONE',  ( 0.0000000000000000000, 1.000000000000000000, 0.0000000000000000000 ) ) ;
#2 = DIRECTION ( 'NONE',  ( -3.491481338843133355E-15, 1.224646799147353207E-16, -1.000000000000000000 ) ) ;
#3 = DIRECTION ( 'NONE',  ( 0.0000000000000000000, 1.000000000000000000, 0.0000000000000000000 ) ) ;
#4 = CARTESIAN_POINT ( 'NONE',  ( 1.443232907021882305E-15, 0.6499999999999953593, 0.3905594023679158089 ) ) ;
#5 = PRODUCT_DEFINITION_FORMATION_WITH_SPECIFIED_SOURCE ( 'ANY', '', #55, .NOT_KNOWN. ) ;
#6 = ADVANCED_FACE ( 'NONE', ( #311 ), #98, .T. ) ;
#7 = CALENDAR_DATE ( 2021, 2, 9 ) ;
#8 = DATE_AND_TIME ( #183, #189 ) ;
#9 = EDGE_CURVE ( 'NONE', #199, #56, #76, .T. ) ;
#10 = ORIENTED_EDGE ( 'NONE', *, *, #255, .F. ) ;
#11 = APPROVAL_PERSON_ORGANIZATION ( #186, #215, #296 ) ;
#12 = EDGE_CURVE ( 'NONE', #281, #41, #214, .T. ) ;
#13 = AXIS2_PLACEMENT_3D ( 'NONE', #287, #234, #205 ) ;
#14 = ORIENTED_EDGE ( 'NONE', *, *, #187, .T. ) ;
#15 = ADVANCED_FACE ( 'NONE', ( #297 ), #239, .T. ) ;
#16 = EDGE_LOOP ( 'NONE', ( #227, #168, #203, #332 ) ) ;
#17 = ORIENTED_EDGE ( 'NONE', *, *, #255, .T. ) ;
#18 = AXIS2_PLACEMENT_3D ( 'NONE', #257, #294, #310 ) ;
#19 = DIRECTION ( 'NONE',  ( 1.798245827342160317E-15, -0.8571673007021098911, 0.5150380749100582634 ) ) ;
#20 = VERTEX_POINT ( 'NONE', #106 ) ;
#21 = DIRECTION ( 'NONE',  ( -3.491481338843133355E-15, 1.224646799147353207E-16, -1.000000000000000000 ) ) ;
#22 = CARTESIAN_POINT ( 'NONE',  ( 1.326762908760390423E-13, -4.653657836759941941E-15, 38.00000000000000000 ) ) ;
#23 = DIRECTION ( 'NONE',  ( 0.0000000000000000000, 1.000000000000000000, 0.0000000000000000000 ) ) ;
#24 = CARTESIAN_POINT ( 'NONE',  ( 1.326762908760390423E-13, 0.4499999999999953482, 38.00000000000000000 ) ) ;
#25 = APPLICATION_CONTEXT ( 'configuration controlled 3d designs of mechanical parts and assemblies' ) ;
#26 = FACE_OUTER_BOUND ( 'NONE', #118, .T. ) ;
#27 = DATE_TIME_ROLE ( 'classification_date' ) ;
#28 = VECTOR ( 'NONE', #258, 1000.000000000000000 ) ;
#29 = APPROVAL_DATE_TIME ( #8, #277 ) ;
#30 = ORGANIZATION ( 'UNSPECIFIED', 'UNSPECIFIED', '' ) ;
#31 = CARTESIAN_POINT ( 'NONE',  ( 5.586370142149013368E-14, -1.959434878635765131E-15, 16.00000000000000000 ) ) ;
#32 = EDGE_CURVE ( 'NONE', #334, #41, #74, .T. ) ;
#33 = DATE_AND_TIME ( #244, #216 ) ;
#34 = ORIENTED_EDGE ( 'NONE', *, *, #197, .F. ) ;
#35 = DIRECTION ( 'NONE',  ( 1.000000000000000000, 0.0000000000000000000, 0.0000000000000000000 ) ) ;
#36 = CC_DESIGN_APPROVAL ( #215, ( #280 ) ) ;
#37 = ORIENTED_EDGE ( 'NONE', *, *, #12, .T. ) ;
#38 = CC_DESIGN_PERSON_AND_ORGANIZATION_ASSIGNMENT ( #114, #108, ( #66 ) ) ;
#39 = ORIENTED_EDGE ( 'NONE', *, *, #32, .F. ) ;
#40 = DIRECTION ( 'NONE',  ( -3.491481338843133355E-15, 1.224646799147353207E-16, -1.000000000000000000 ) ) ;
#41 = VERTEX_POINT ( 'NONE', #319 ) ;
#42 = CARTESIAN_POINT ( 'NONE',  ( 0.0000000000000000000, 0.0000000000000000000, 0.0000000000000000000 ) ) ;
#43 = DIRECTION ( 'NONE',  ( -2.962969145211153303E-31, -1.000000000000000000, -8.340016711427016918E-17 ) ) ;
#44 = FACE_OUTER_BOUND ( 'NONE', #87, .T. ) ;
#45 = DIRECTION ( 'NONE',  ( 0.0000000000000000000, 1.000000000000000000, 0.0000000000000000000 ) ) ;
#46 = CARTESIAN_POINT ( 'NONE',  ( 0.0000000000000000000, 0.0000000000000000000, 0.0000000000000000000 ) ) ;
#47 = CARTESIAN_POINT ( 'NONE',  ( 2.869326818522822028E-14, -0.6499999999999993561, 16.00000000000000000 ) ) ;
#48 = LOCAL_TIME ( 15, 22, 31.00000000000000000, #188 ) ;
#49 = DIRECTION ( 'NONE',  ( -3.491481338843133355E-15, 1.224646799147353207E-16, -1.000000000000000000 ) ) ;
#50 = PERSON_AND_ORGANIZATION ( #132, #30 ) ;
#51 = ORIENTED_EDGE ( 'NONE', *, *, #58, .T. ) ;
#52 = DIRECTION ( 'NONE',  ( 3.491481338843133355E-15, -1.224646799147353207E-16, 1.000000000000000000 ) ) ;
#53 = COORDINATED_UNIVERSAL_TIME_OFFSET ( 1, 0, .AHEAD. ) ;
#54 = ADVANCED_FACE ( 'NONE', ( #177 ), #238, .T. ) ;
#55 = PRODUCT ( '40658', '40658', '', ( #117 ) ) ;
#56 = VERTEX_POINT ( 'NONE', #237 ) ;
#57 = AXIS2_PLACEMENT_3D ( 'NONE', #182, #52, #298 ) ;
#58 = EDGE_CURVE ( 'NONE', #199, #230, #314, .T. ) ;
#59 = AXIS2_PLACEMENT_3D ( 'NONE', #175, #133, #292 ) ;
#60 =( LENGTH_UNIT ( ) NAMED_UNIT ( * ) SI_UNIT ( .MILLI., .METRE. ) );
#61 = APPROVAL_PERSON_ORGANIZATION ( #290, #299, #208 ) ;
#62 = VERTEX_POINT ( 'NONE', #47 ) ;
#63 = CYLINDRICAL_SURFACE ( 'NONE', #331, 0.6499999999999962474 ) ;
#64 = ORIENTED_EDGE ( 'NONE', *, *, #315, .F. ) ;
#65 = CARTESIAN_POINT ( 'NONE',  ( 1.363630865077304498E-15, -4.782973219867712151E-17, 0.3905594023679157534 ) ) ;
#66 = PRODUCT_DEFINITION ( 'UNKNOWN', '', #5, #245 ) ;
#67 = DIRECTION ( 'NONE',  ( -3.491481338843133355E-15, 1.224646799147353207E-16, -1.000000000000000000 ) ) ;
#68 = DIRECTION ( 'NONE',  ( -3.491481338843133355E-15, 1.224646799147353207E-16, -1.000000000000000000 ) ) ;
#69 = COORDINATED_UNIVERSAL_TIME_OFFSET ( 1, 0, .AHEAD. ) ;
#70 = DIRECTION ( 'NONE',  ( 3.491481338843133355E-15, -1.224646799147353207E-16, 1.000000000000000000 ) ) ;
#71 = DIRECTION ( 'NONE',  ( -2.962969145211153303E-31, -1.000000000000000000, -8.340016711427016918E-17 ) ) ;
#72 = EDGE_CURVE ( 'NONE', #213, #41, #152, .T. ) ;
#73 = CARTESIAN_POINT ( 'NONE',  ( 1.327313999820006996E-13, -0.4500000000000046740, 38.00000000000000000 ) ) ;
#74 = LINE ( 'NONE', #130, #302 ) ;
#75 = APPROVAL_STATUS ( 'not_yet_approved' ) ;
#76 = CIRCLE ( 'NONE', #159, 0.6500000000000000222 ) ;
#77 = CC_DESIGN_PERSON_AND_ORGANIZATION_ASSIGNMENT ( #82, #324, ( #5 ) ) ;
#78 = CC_DESIGN_SECURITY_CLASSIFICATION ( #280, ( #5 ) ) ;
#79 = EDGE_CURVE ( 'NONE', #62, #334, #261, .T. ) ;
#80 = PLANE ( 'NONE',  #57 ) ;
#81 = ORIENTED_EDGE ( 'NONE', *, *, #140, .F. ) ;
#82 = PERSON_AND_ORGANIZATION ( #132, #30 ) ;
#83 = APPROVAL_STATUS ( 'not_yet_approved' ) ;
#84 = AXIS2_PLACEMENT_3D ( 'NONE', #124, #316, #71 ) ;
#85 = MANIFOLD_SOLID_BREP ( 'Corps-Déplacer/Copier1[2]', #95 ) ;
#86 = ADVANCED_FACE ( 'NONE', ( #153 ), #325, .T. ) ;
#87 = EDGE_LOOP ( 'NONE', ( #279, #116, #264 ) ) ;
#88 = APPROVAL_DATE_TIME ( #268, #215 ) ;
#89 = CC_DESIGN_PERSON_AND_ORGANIZATION_ASSIGNMENT ( #50, #156, ( #5 ) ) ;
#90 = APPLICATION_PROTOCOL_DEFINITION ( 'international standard', 'config_control_design', 1994, #122 ) ;
#91 = ORIENTED_EDGE ( 'NONE', *, *, #247, .T. ) ;
#92 = CARTESIAN_POINT ( 'NONE',  ( 9.400045005682481714E-14, -0.6499999999999992450, 16.00000000000000000 ) ) ;
#93 = CARTESIAN_POINT ( 'NONE',  ( 1.326762908760390423E-13, -4.653657836759941941E-15, 38.00000000000000000 ) ) ;
#94 = ORIENTED_EDGE ( 'NONE', *, *, #127, .F. ) ;
#95 = CLOSED_SHELL ( 'NONE', ( #15, #220, #86, #283, #6 ) ) ;
#96 = AXIS2_PLACEMENT_3D ( 'NONE', #121, #291, #45 ) ;
#97 = FACE_OUTER_BOUND ( 'NONE', #16, .T. ) ;
#98 = PLANE ( 'NONE',  #137 ) ;
#99 = DIRECTION ( 'NONE',  ( -2.468850131082257455E-15, 0.7071067811865497932, -0.7071067811865453523 ) ) ;
#100 = DIRECTION ( 'NONE',  ( 0.0000000000000000000, 1.000000000000000000, 0.0000000000000000000 ) ) ;
#101 = CC_DESIGN_PERSON_AND_ORGANIZATION_ASSIGNMENT ( #204, #142, ( #55 ) ) ;
#102 = DIRECTION ( 'NONE',  ( 1.903218546456022717E-15, 0.8571673007021097801, 0.5150380749100585964 ) ) ;
#103 = VECTOR ( 'NONE', #99, 1000.000000000000114 ) ;
#104 = CONICAL_SURFACE ( 'NONE', #84, 0.6499999999999953593, 1.029744258676649649 ) ;
#105 = CIRCLE ( 'NONE', #150, 0.4500000000000000111 ) ;
#106 = CARTESIAN_POINT ( 'NONE',  ( 1.323944983161078635E-13, -0.4500000000000046740, 38.00000000000000000 ) ) ;
#107 = CC_DESIGN_DATE_AND_TIME_ASSIGNMENT ( #274, #27, ( #280 ) ) ;
#108 = PERSON_AND_ORGANIZATION_ROLE ( 'creator' ) ;
#109 =( NAMED_UNIT ( * ) PLANE_ANGLE_UNIT ( ) SI_UNIT ( $, .RADIAN. ) );
#110 = SHAPE_DEFINITION_REPRESENTATION ( #192, #241 ) ;
#111 = VECTOR ( 'NONE', #19, 1000.000000000000000 ) ;
#112 = CARTESIAN_POINT ( 'NONE',  ( 5.586370142149013368E-14, 0.6499999999999953593, 16.00000000000000000 ) ) ;
#113 = EDGE_LOOP ( 'NONE', ( #201, #272, #284, #248 ) ) ;
#114 = PERSON_AND_ORGANIZATION ( #132, #30 ) ;
#115 = CC_DESIGN_DATE_AND_TIME_ASSIGNMENT ( #33, #270, ( #66 ) ) ;
#116 = ORIENTED_EDGE ( 'NONE', *, *, #72, .T. ) ;
#117 = MECHANICAL_CONTEXT ( 'NONE', #25, 'mechanical' ) ;
#118 = EDGE_LOOP ( 'NONE', ( #17, #51, #64, #94 ) ) ;
#119 = ORIENTED_EDGE ( 'NONE', *, *, #224, .T. ) ;
#120 =( GEOMETRIC_REPRESENTATION_CONTEXT ( 3 ) GLOBAL_UNCERTAINTY_ASSIGNED_CONTEXT ( ( #139 ) ) GLOBAL_UNIT_ASSIGNED_CONTEXT ( ( #60, #109, #301 ) ) REPRESENTATION_CONTEXT ( 'NONE', 'WORKASPACE' ) );
#121 = CARTESIAN_POINT ( 'NONE',  ( 1.319779946082704535E-13, -4.629164900776995227E-15, 37.79999999999999716 ) ) ;
#122 = APPLICATION_CONTEXT ( 'configuration controlled 3d designs of mechanical parts and assemblies' ) ;
#123 = ORIENTED_EDGE ( 'NONE', *, *, #197, .T. ) ;
#124 = CARTESIAN_POINT ( 'NONE',  ( 1.363630865077304498E-15, -4.782973219867712151E-17, 0.3905594023679157534 ) ) ;
#125 = CARTESIAN_POINT ( 'NONE',  ( 7.960204194457752336E-17, -0.6499999999999986899, -7.960204194457807803E-17 ) ) ;
#126 = VECTOR ( 'NONE', #102, 999.9999999999998863 ) ;
#127 = EDGE_CURVE ( 'NONE', #56, #254, #145, .T. ) ;
#128 = FACE_OUTER_BOUND ( 'NONE', #250, .T. ) ;
#129 = DIRECTION ( 'NONE',  ( 4.275831445896958607E-31, 1.000000000000000000, 1.224646799147353207E-16 ) ) ;
#130 = CARTESIAN_POINT ( 'NONE',  ( 2.779290439833007592E-31, 0.6499999999999962474, 7.960204194457751103E-17 ) ) ;
#131 = AXIS2_PLACEMENT_3D ( 'NONE', #46, #148, #210 ) ;
#132 = PERSON ( 'UNSPECIFIED', 'UNSPECIFIED', 'UNSPECIFIED', ('UNSPECIFIED'), ('UNSPECIFIED'), ('UNSPECIFIED') ) ;
#133 = DIRECTION ( 'NONE',  ( -3.491481338843133355E-15, 1.224646799147353207E-16, -1.000000000000000000 ) ) ;
#134 = CONICAL_SURFACE ( 'NONE', #18, 0.4500000000000000111, 0.7853981633974512766 ) ;
#135 = APPROVAL_ROLE ( '' ) ;
#136 = ADVANCED_FACE ( 'NONE', ( #323 ), #80, .F. ) ;
#137 = AXIS2_PLACEMENT_3D ( 'NONE', #207, #317, #267 ) ;
#138 = COORDINATED_UNIVERSAL_TIME_OFFSET ( 1, 0, .AHEAD. ) ;
#139 = UNCERTAINTY_MEASURE_WITH_UNIT (LENGTH_MEASURE( 1.000000000000000082E-05 ), #60, 'distance_accuracy_value', 'NONE');
#140 = EDGE_CURVE ( 'NONE', #166, #56, #217, .T. ) ;
#141 = EDGE_LOOP ( 'NONE', ( #226, #91, #10, #81 ) ) ;
#142 = PERSON_AND_ORGANIZATION_ROLE ( 'design_owner' ) ;
#143 = PLANE ( 'NONE',  #185 ) ;
#144 = CARTESIAN_POINT ( 'NONE',  ( 0.0000000000000000000, 0.0000000000000000000, 0.0000000000000000000 ) ) ;
#145 = LINE ( 'NONE', #232, #28 ) ;
#146 = CYLINDRICAL_SURFACE ( 'NONE', #13, 0.6499999999999986899 ) ;
#147 = LINE ( 'NONE', #285, #111 ) ;
#148 = DIRECTION ( 'NONE',  ( -3.491481338843133355E-15, 1.224646799147353207E-16, -1.000000000000000000 ) ) ;
#149 = AXIS2_PLACEMENT_3D ( 'NONE', #144, #262, #266 ) ;
#150 = AXIS2_PLACEMENT_3D ( 'NONE', #93, #68, #191 ) ;
#151 = FACE_OUTER_BOUND ( 'NONE', #242, .T. ) ;
#152 = LINE ( 'NONE', #4, #126 ) ;
#153 = FACE_OUTER_BOUND ( 'NONE', #158, .T. ) ;
#154 = PERSON_AND_ORGANIZATION ( #132, #30 ) ;
#155 = VECTOR ( 'NONE', #333, 1000.000000000000000 ) ;
#156 = PERSON_AND_ORGANIZATION_ROLE ( 'design_supplier' ) ;
#157 = PERSON_AND_ORGANIZATION ( #132, #30 ) ;
#158 = EDGE_LOOP ( 'NONE', ( #228, #14, #37 ) ) ;
#159 = AXIS2_PLACEMENT_3D ( 'NONE', #288, #2, #100 ) ;
#160 = LOCAL_TIME ( 15, 22, 31.00000000000000000, #69 ) ;
#161 = CC_DESIGN_APPROVAL ( #277, ( #5 ) ) ;
#162 = ADVANCED_FACE ( 'NONE', ( #128 ), #143, .F. ) ;
#163 = ORIENTED_EDGE ( 'NONE', *, *, #181, .T. ) ;
#164 = APPLICATION_PROTOCOL_DEFINITION ( 'international standard', 'config_control_design', 1994, #25 ) ;
#165 = EDGE_LOOP ( 'NONE', ( #34, #195 ) ) ;
#166 = VERTEX_POINT ( 'NONE', #24 ) ;
#167 = CARTESIAN_POINT ( 'NONE',  ( 5.586370142149013368E-14, -1.959434878635765131E-15, 16.00000000000000000 ) ) ;
#168 = ORIENTED_EDGE ( 'NONE', *, *, #9, .T. ) ;
#169 = CARTESIAN_POINT ( 'NONE',  ( 1.326762908760390423E-13, -4.653657836759941941E-15, 38.00000000000000000 ) ) ;
#170 = DIRECTION ( 'NONE',  ( -3.491481338843133355E-15, 1.224646799147353207E-16, -1.000000000000000000 ) ) ;
#171 = ADVANCED_FACE ( 'NONE', ( #97 ), #146, .T. ) ;
#172 = CARTESIAN_POINT ( 'NONE',  ( 5.586370142149013368E-14, 0.6499999999999953593, 16.00000000000000000 ) ) ;
#173 = ORIENTED_EDGE ( 'NONE', *, *, #12, .F. ) ;
#174 = CARTESIAN_POINT ( 'NONE',  ( 7.960204194457722754E-17, -0.6499999999999962474, -7.960204194457776988E-17 ) ) ;
#175 = CARTESIAN_POINT ( 'NONE',  ( 1.363630865077304498E-15, -4.782973219867712151E-17, 0.3905594023679157534 ) ) ;
#176 = DIRECTION ( 'NONE',  ( -2.382254525458708792E-15, -0.7071067811865495711, -0.7071067811865455743 ) ) ;
#177 = FACE_OUTER_BOUND ( 'NONE', #141, .T. ) ;
#178 = CIRCLE ( 'NONE', #96, 0.6500000000000000222 ) ;
#179 = AXIS2_PLACEMENT_3D ( 'NONE', #65, #21, #335 ) ;
#180 = ADVANCED_FACE ( 'NONE', ( #26 ), #337, .T. ) ;
#181 = EDGE_CURVE ( 'NONE', #230, #254, #233, .T. ) ;
#182 = CARTESIAN_POINT ( 'NONE',  ( 5.586370142149013368E-14, 4.874219293650987961E-33, 16.00000000000000000 ) ) ;
#183 = CALENDAR_DATE ( 2021, 2, 9 ) ;
#184 = ORIENTED_EDGE ( 'NONE', *, *, #303, .F. ) ;
#185 = AXIS2_PLACEMENT_3D ( 'NONE', #282, #235, #129 ) ;
#186 = PERSON_AND_ORGANIZATION ( #132, #30 ) ;
#187 = EDGE_CURVE ( 'NONE', #213, #281, #147, .T. ) ;
#188 = COORDINATED_UNIVERSAL_TIME_OFFSET ( 1, 0, .AHEAD. ) ;
#189 = LOCAL_TIME ( 15, 22, 31.00000000000000000, #53 ) ;
#190 = PRODUCT_RELATED_PRODUCT_CATEGORY ( 'detail', '', ( #55 ) ) ;
#191 = DIRECTION ( 'NONE',  ( 0.0000000000000000000, 1.000000000000000000, 0.0000000000000000000 ) ) ;
#192 = PRODUCT_DEFINITION_SHAPE ( 'NONE', 'NONE',  #66 ) ;
#193 = DATE_AND_TIME ( #222, #160 ) ;
#194 = CARTESIAN_POINT ( 'NONE',  ( 0.0000000000000000000, 0.0000000000000000000, 0.0000000000000000000 ) ) ;
#195 = ORIENTED_EDGE ( 'NONE', *, *, #79, .F. ) ;
#196 = MANIFOLD_SOLID_BREP ( 'Corps-Déplacer/Copier1[1]', #276 ) ;
#197 = EDGE_CURVE ( 'NONE', #334, #62, #312, .T. ) ;
#198 = AXIS2_PLACEMENT_3D ( 'NONE', #167, #206, #3 ) ;
#199 = VERTEX_POINT ( 'NONE', #209 ) ;
#200 = LINE ( 'NONE', #73, #305 ) ;
#201 = ORIENTED_EDGE ( 'NONE', *, *, #247, .F. ) ;
#202 = DIRECTION ( 'NONE',  ( 4.275831445896959482E-31, 1.000000000000000000, 1.224646799147353454E-16 ) ) ;
#203 = ORIENTED_EDGE ( 'NONE', *, *, #127, .T. ) ;
#204 = PERSON_AND_ORGANIZATION ( #132, #30 ) ;
#205 = DIRECTION ( 'NONE',  ( 4.275831445896958607E-31, 1.000000000000000000, 1.224646799147353207E-16 ) ) ;
#206 = DIRECTION ( 'NONE',  ( -3.491481338843133355E-15, 1.224646799147353207E-16, -1.000000000000000000 ) ) ;
#207 = CARTESIAN_POINT ( 'NONE',  ( 5.586370142149013368E-14, 4.874219293650987961E-33, 16.00000000000000000 ) ) ;
#208 = APPROVAL_ROLE ( '' ) ;
#209 = CARTESIAN_POINT ( 'NONE',  ( 9.400045005682471617E-14, -0.6500000000000046851, 37.79999999999999716 ) ) ;
#210 = DIRECTION ( 'NONE',  ( 4.275831445896959482E-31, 1.000000000000000000, 1.224646799147353454E-16 ) ) ;
#211 = EDGE_CURVE ( 'NONE', #166, #20, #330, .T. ) ;
#212 = AXIS2_PLACEMENT_3D ( 'NONE', #321, #49, #336 ) ;
#213 = VERTEX_POINT ( 'NONE', #42 ) ;
#214 = CIRCLE ( 'NONE', #59, 0.6499999999999953593 ) ;
#215 = APPROVAL ( #83, 'UNSPECIFIED' ) ;
#216 = LOCAL_TIME ( 15, 22, 31.00000000000000000, #138 ) ;
#217 = LINE ( 'NONE', #229, #103 ) ;
#218 = AXIS2_PLACEMENT_3D ( 'NONE', #22, #170, #286 ) ;
#219 = PERSON_AND_ORGANIZATION_ROLE ( 'classification_officer' ) ;
#220 = ADVANCED_FACE ( 'NONE', ( #44 ), #104, .T. ) ;
#221 = AXIS2_PLACEMENT_3D ( 'NONE', #313, #236, #1 ) ;
#222 = CALENDAR_DATE ( 2021, 2, 9 ) ;
#223 = DIRECTION ( 'NONE',  ( 0.0000000000000000000, 1.000000000000000000, 0.0000000000000000000 ) ) ;
#224 = EDGE_CURVE ( 'NONE', #62, #281, #318, .T. ) ;
#225 = AXIS2_PLACEMENT_3D ( 'NONE', #194, #278, #35 ) ;
#226 = ORIENTED_EDGE ( 'NONE', *, *, #211, .T. ) ;
#227 = ORIENTED_EDGE ( 'NONE', *, *, #58, .F. ) ;
#228 = ORIENTED_EDGE ( 'NONE', *, *, #72, .F. ) ;
#229 = CARTESIAN_POINT ( 'NONE',  ( 1.326762908760390423E-13, 0.4499999999999953482, 38.00000000000000000 ) ) ;
#230 = VERTEX_POINT ( 'NONE', #92 ) ;
#231 = CARTESIAN_POINT ( 'NONE',  ( 1.363630865077304301E-15, -0.6499999999999953593, 0.3905594023679156979 ) ) ;
#232 = CARTESIAN_POINT ( 'NONE',  ( 2.779290439833017226E-31, 0.6499999999999986899, 7.960204194457779453E-17 ) ) ;
#233 = CIRCLE ( 'NONE', #221, 0.6499999999999972466 ) ;
#234 = DIRECTION ( 'NONE',  ( -3.491481338843133355E-15, 1.224646799147353207E-16, -1.000000000000000000 ) ) ;
#235 = DIRECTION ( 'NONE',  ( -3.491481338843133355E-15, 1.224646799147353207E-16, -1.000000000000000000 ) ) ;
#236 = DIRECTION ( 'NONE',  ( -3.491481338843133355E-15, 1.224646799147353207E-16, -1.000000000000000000 ) ) ;
#237 = CARTESIAN_POINT ( 'NONE',  ( 1.319779946082704535E-13, 0.6499999999999953593, 37.79999999999999716 ) ) ;
#238 = CONICAL_SURFACE ( 'NONE', #218, 0.4500000000000000111, 0.7853981633974512766 ) ;
#239 = CYLINDRICAL_SURFACE ( 'NONE', #131, 0.6499999999999962474 ) ;
#240 = SECURITY_CLASSIFICATION_LEVEL ( 'unclassified' ) ;
#241 = ADVANCED_BREP_SHAPE_REPRESENTATION ( '40658', ( #196, #85, #225 ), #120 ) ;
#242 = EDGE_LOOP ( 'NONE', ( #275, #304, #322, #173 ) ) ;
#243 = CIRCLE ( 'NONE', #327, 0.6499999999999972466 ) ;
#244 = CALENDAR_DATE ( 2021, 2, 9 ) ;
#245 = DESIGN_CONTEXT ( 'detailed design', #122, 'design' ) ;
#246 = APPROVAL_DATE_TIME ( #193, #299 ) ;
#247 = EDGE_CURVE ( 'NONE', #20, #199, #200, .T. ) ;
#248 = ORIENTED_EDGE ( 'NONE', *, *, #9, .F. ) ;
#249 = DIRECTION ( 'NONE',  ( -3.491481338843133355E-15, 1.224646799147353207E-16, -1.000000000000000000 ) ) ;
#250 = EDGE_LOOP ( 'NONE', ( #306, #184 ) ) ;
#251 = AXIS2_PLACEMENT_3D ( 'NONE', #269, #70, #43 ) ;
#252 = APPROVAL_STATUS ( 'not_yet_approved' ) ;
#253 = CARTESIAN_POINT ( 'NONE',  ( 0.0000000000000000000, 0.0000000000000000000, 0.0000000000000000000 ) ) ;
#254 = VERTEX_POINT ( 'NONE', #172 ) ;
#255 = EDGE_CURVE ( 'NONE', #56, #199, #178, .T. ) ;
#256 = LOCAL_TIME ( 15, 22, 31.00000000000000000, #326 ) ;
#257 = CARTESIAN_POINT ( 'NONE',  ( 1.326762908760390423E-13, -4.653657836759941941E-15, 38.00000000000000000 ) ) ;
#258 = DIRECTION ( 'NONE',  ( -3.491481338843133355E-15, 1.224646799147353207E-16, -1.000000000000000000 ) ) ;
#259 = DIRECTION ( 'NONE',  ( -3.491481338843133355E-15, 1.224646799147353207E-16, -1.000000000000000000 ) ) ;
#260 = EDGE_LOOP ( 'NONE', ( #329, #163 ) ) ;
#261 = CIRCLE ( 'NONE', #212, 0.6499999999999972466 ) ;
#262 = DIRECTION ( 'NONE',  ( -3.491481338843133355E-15, 1.224646799147353207E-16, -1.000000000000000000 ) ) ;
#263 = CIRCLE ( 'NONE', #179, 0.6499999999999953593 ) ;
#264 = ORIENTED_EDGE ( 'NONE', *, *, #289, .T. ) ;
#265 = CC_DESIGN_APPROVAL ( #299, ( #66 ) ) ;
#266 = DIRECTION ( 'NONE',  ( 4.275831445896958607E-31, 1.000000000000000000, 1.224646799147353207E-16 ) ) ;
#267 = DIRECTION ( 'NONE',  ( -4.275831445896958607E-31, -1.000000000000000000, -1.224646799147353207E-16 ) ) ;
#268 = DATE_AND_TIME ( #300, #48 ) ;
#269 = CARTESIAN_POINT ( 'NONE',  ( 1.363630865077304498E-15, -4.782973219867712151E-17, 0.3905594023679157534 ) ) ;
#270 = DATE_TIME_ROLE ( 'creation_date' ) ;
#271 = ADVANCED_FACE ( 'NONE', ( #307 ), #134, .T. ) ;
#272 = ORIENTED_EDGE ( 'NONE', *, *, #303, .T. ) ;
#273 = APPROVAL_PERSON_ORGANIZATION ( #157, #277, #135 ) ;
#274 = DATE_AND_TIME ( #7, #256 ) ;
#275 = ORIENTED_EDGE ( 'NONE', *, *, #224, .F. ) ;
#276 = CLOSED_SHELL ( 'NONE', ( #54, #180, #136, #171, #271, #162 ) ) ;
#277 = APPROVAL ( #75, 'UNSPECIFIED' ) ;
#278 = DIRECTION ( 'NONE',  ( 0.0000000000000000000, 0.0000000000000000000, 1.000000000000000000 ) ) ;
#279 = ORIENTED_EDGE ( 'NONE', *, *, #187, .F. ) ;
#280 = SECURITY_CLASSIFICATION ( '', '', #240 ) ;
#281 = VERTEX_POINT ( 'NONE', #231 ) ;
#282 = CARTESIAN_POINT ( 'NONE',  ( 1.326762908760390423E-13, 3.374459510989109826E-33, 38.00000000000000000 ) ) ;
#283 = ADVANCED_FACE ( 'NONE', ( #151 ), #63, .T. ) ;
#284 = ORIENTED_EDGE ( 'NONE', *, *, #140, .T. ) ;
#285 = CARTESIAN_POINT ( 'NONE',  ( 1.363630865077304301E-15, -0.6499999999999953593, 0.3905594023679156979 ) ) ;
#286 = DIRECTION ( 'NONE',  ( 0.0000000000000000000, 1.000000000000000000, 0.0000000000000000000 ) ) ;
#287 = CARTESIAN_POINT ( 'NONE',  ( 0.0000000000000000000, 0.0000000000000000000, 0.0000000000000000000 ) ) ;
#288 = CARTESIAN_POINT ( 'NONE',  ( 1.319779946082704535E-13, -4.629164900776995227E-15, 37.79999999999999716 ) ) ;
#289 = EDGE_CURVE ( 'NONE', #41, #281, #263, .T. ) ;
#290 = PERSON_AND_ORGANIZATION ( #132, #30 ) ;
#291 = DIRECTION ( 'NONE',  ( -3.491481338843133355E-15, 1.224646799147353207E-16, -1.000000000000000000 ) ) ;
#292 = DIRECTION ( 'NONE',  ( 2.962969145211153303E-31, 1.000000000000000000, 8.340016711427016918E-17 ) ) ;
#293 = CC_DESIGN_PERSON_AND_ORGANIZATION_ASSIGNMENT ( #154, #219, ( #280 ) ) ;
#294 = DIRECTION ( 'NONE',  ( -3.491481338843133355E-15, 1.224646799147353207E-16, -1.000000000000000000 ) ) ;
#295 = DIRECTION ( 'NONE',  ( -3.491481338843133355E-15, 1.224646799147353207E-16, -1.000000000000000000 ) ) ;
#296 = APPROVAL_ROLE ( '' ) ;
#297 = FACE_OUTER_BOUND ( 'NONE', #308, .T. ) ;
#298 = DIRECTION ( 'NONE',  ( -4.275831445896958607E-31, -1.000000000000000000, -1.224646799147353207E-16 ) ) ;
#299 = APPROVAL ( #252, 'UNSPECIFIED' ) ;
#300 = CALENDAR_DATE ( 2021, 2, 9 ) ;
#301 =( NAMED_UNIT ( * ) SI_UNIT ( $, .STERADIAN. ) SOLID_ANGLE_UNIT ( ) );
#302 = VECTOR ( 'NONE', #67, 1000.000000000000000 ) ;
#303 = EDGE_CURVE ( 'NONE', #20, #166, #105, .T. ) ;
#304 = ORIENTED_EDGE ( 'NONE', *, *, #79, .T. ) ;
#305 = VECTOR ( 'NONE', #176, 1000.000000000000114 ) ;
#306 = ORIENTED_EDGE ( 'NONE', *, *, #211, .F. ) ;
#307 = FACE_OUTER_BOUND ( 'NONE', #113, .T. ) ;
#308 = EDGE_LOOP ( 'NONE', ( #123, #119, #328, #39 ) ) ;
#309 = VECTOR ( 'NONE', #295, 1000.000000000000000 ) ;
#310 = DIRECTION ( 'NONE',  ( 0.0000000000000000000, 1.000000000000000000, 0.0000000000000000000 ) ) ;
#311 = FACE_OUTER_BOUND ( 'NONE', #165, .T. ) ;
#312 = CIRCLE ( 'NONE', #198, 0.6499999999999972466 ) ;
#313 = CARTESIAN_POINT ( 'NONE',  ( 5.586370142149013368E-14, -1.959434878635765131E-15, 16.00000000000000000 ) ) ;
#314 = LINE ( 'NONE', #125, #309 ) ;
#315 = EDGE_CURVE ( 'NONE', #254, #230, #243, .T. ) ;
#316 = DIRECTION ( 'NONE',  ( 3.491481338843133355E-15, -1.224646799147353207E-16, 1.000000000000000000 ) ) ;
#317 = DIRECTION ( 'NONE',  ( 3.491481338843133355E-15, -1.224646799147353207E-16, 1.000000000000000000 ) ) ;
#318 = LINE ( 'NONE', #174, #155 ) ;
#319 = CARTESIAN_POINT ( 'NONE',  ( 1.443232907021882305E-15, 0.6499999999999953593, 0.3905594023679158089 ) ) ;
#320 = AXIS2_PLACEMENT_3D ( 'NONE', #169, #259, #23 ) ;
#321 = CARTESIAN_POINT ( 'NONE',  ( 5.586370142149013368E-14, -1.959434878635765131E-15, 16.00000000000000000 ) ) ;
#322 = ORIENTED_EDGE ( 'NONE', *, *, #32, .T. ) ;
#323 = FACE_OUTER_BOUND ( 'NONE', #260, .T. ) ;
#324 = PERSON_AND_ORGANIZATION_ROLE ( 'creator' ) ;
#325 = CONICAL_SURFACE ( 'NONE', #251, 0.6499999999999953593, 1.029744258676649649 ) ;
#326 = COORDINATED_UNIVERSAL_TIME_OFFSET ( 1, 0, .AHEAD. ) ;
#327 = AXIS2_PLACEMENT_3D ( 'NONE', #31, #249, #223 ) ;
#328 = ORIENTED_EDGE ( 'NONE', *, *, #289, .F. ) ;
#329 = ORIENTED_EDGE ( 'NONE', *, *, #315, .T. ) ;
#330 = CIRCLE ( 'NONE', #320, 0.4500000000000000111 ) ;
#331 = AXIS2_PLACEMENT_3D ( 'NONE', #253, #40, #202 ) ;
#332 = ORIENTED_EDGE ( 'NONE', *, *, #181, .F. ) ;
#333 = DIRECTION ( 'NONE',  ( -3.491481338843133355E-15, 1.224646799147353207E-16, -1.000000000000000000 ) ) ;
#334 = VERTEX_POINT ( 'NONE', #112 ) ;
#335 = DIRECTION ( 'NONE',  ( 2.962969145211153303E-31, 1.000000000000000000, 8.340016711427016918E-17 ) ) ;
#336 = DIRECTION ( 'NONE',  ( 0.0000000000000000000, 1.000000000000000000, 0.0000000000000000000 ) ) ;
#337 = CYLINDRICAL_SURFACE ( 'NONE', #149, 0.6499999999999986899 ) ;
ENDSEC;
END-ISO-10303-21;
