ISO-10303-21;
HEADER;
FILE_DESCRIPTION (( 'STEP AP203' ),
    '1' );
FILE_NAME ('40657.step',
    '2021-09-02T13:22:30',
    ( '' ),
    ( '' ),
    'SwSTEP 2.0',
    'SolidWorks 2019',
    '' );
FILE_SCHEMA (( 'CONFIG_CONTROL_DESIGN' ));
ENDSEC;

DATA;
#1 = DIRECTION ( 'NONE',  ( -3.491481338843133355E-15, 1.224646799147353207E-16, -1.000000000000000000 ) ) ;
#2 = EDGE_LOOP ( 'NONE', ( #240, #165 ) ) ;
#3 = CARTESIAN_POINT ( 'NONE',  ( 1.327252767480049515E-13, -0.4000000000000049627, 38.00000000000000000 ) ) ;
#4 = FACE_OUTER_BOUND ( 'NONE', #120, .T. ) ;
#5 = PERSON_AND_ORGANIZATION ( #230, #104 ) ;
#6 = APPLICATION_CONTEXT ( 'configuration controlled 3d designs of mechanical parts and assemblies' ) ;
#7 = EDGE_CURVE ( 'NONE', #291, #298, #54, .T. ) ;
#8 = APPROVAL_ROLE ( '' ) ;
#9 = ADVANCED_FACE ( 'NONE', ( #75 ), #84, .T. ) ;
#10 = ORIENTED_EDGE ( 'NONE', *, *, #88, .T. ) ;
#11 = CALENDAR_DATE ( 2021, 2, 9 ) ;
#12 = ADVANCED_FACE ( 'NONE', ( #170 ), #41, .T. ) ;
#13 = AXIS2_PLACEMENT_3D ( 'NONE', #206, #315, #81 ) ;
#14 = CLOSED_SHELL ( 'NONE', ( #9, #295, #261, #283, #133, #239 ) ) ;
#15 = CARTESIAN_POINT ( 'NONE',  ( 7.347880794884079553E-17, -0.5999999999999988676, -7.347880794884130090E-17 ) ) ;
#16 = ORIENTED_EDGE ( 'NONE', *, *, #65, .T. ) ;
#17 = CARTESIAN_POINT ( 'NONE',  ( 0.0000000000000000000, 0.0000000000000000000, 0.0000000000000000000 ) ) ;
#18 = EDGE_CURVE ( 'NONE', #233, #23, #140, .T. ) ;
#19 = ORIENTED_EDGE ( 'NONE', *, *, #88, .F. ) ;
#20 = ORIENTED_EDGE ( 'NONE', *, *, #83, .T. ) ;
#21 =( GEOMETRIC_REPRESENTATION_CONTEXT ( 3 ) GLOBAL_UNCERTAINTY_ASSIGNED_CONTEXT ( ( #236 ) ) GLOBAL_UNIT_ASSIGNED_CONTEXT ( ( #159, #321, #266 ) ) REPRESENTATION_CONTEXT ( 'NONE', 'WORKASPACE' ) );
#22 = DIRECTION ( 'NONE',  ( 0.0000000000000000000, 1.000000000000000000, 0.0000000000000000000 ) ) ;
#23 = VERTEX_POINT ( 'NONE', #167 ) ;
#24 = DIRECTION ( 'NONE',  ( 3.491481338843133355E-15, -1.224646799147353207E-16, 1.000000000000000000 ) ) ;
#25 = DIRECTION ( 'NONE',  ( 3.209883240645416443E-31, 1.000000000000000000, 9.035018104045936022E-17 ) ) ;
#26 = DIRECTION ( 'NONE',  ( -3.491481338843133355E-15, 1.224646799147353207E-16, -1.000000000000000000 ) ) ;
#27 = CIRCLE ( 'NONE', #225, 0.5999999999999975353 ) ;
#28 = DIRECTION ( 'NONE',  ( 4.275831445896958607E-31, 1.000000000000000000, 1.224646799147353207E-16 ) ) ;
#29 = AXIS2_PLACEMENT_3D ( 'NONE', #282, #105, #308 ) ;
#30 = PLANE ( 'NONE',  #175 ) ;
#31 = AXIS2_PLACEMENT_3D ( 'NONE', #197, #1, #137 ) ;
#32 = CC_DESIGN_APPROVAL ( #102, ( #255 ) ) ;
#33 = ADVANCED_BREP_SHAPE_REPRESENTATION ( '40657', ( #134, #241, #234 ), #21 ) ;
#34 = APPROVAL_STATUS ( 'not_yet_approved' ) ;
#35 = LOCAL_TIME ( 15, 22, 30.00000000000000000, #181 ) ;
#36 = CARTESIAN_POINT ( 'NONE',  ( 0.0000000000000000000, 0.0000000000000000000, 0.0000000000000000000 ) ) ;
#37 = PERSON_AND_ORGANIZATION ( #230, #104 ) ;
#38 = EDGE_CURVE ( 'NONE', #214, #263, #290, .T. ) ;
#39 = PERSON_AND_ORGANIZATION ( #230, #104 ) ;
#40 = ORIENTED_EDGE ( 'NONE', *, *, #188, .F. ) ;
#41 = CONICAL_SURFACE ( 'NONE', #97, 0.5999999999999956479, 1.029744258676649649 ) ;
#42 = MECHANICAL_CONTEXT ( 'NONE', #278, 'mechanical' ) ;
#43 = ORIENTED_EDGE ( 'NONE', *, *, #65, .F. ) ;
#44 = PRODUCT_RELATED_PRODUCT_CATEGORY ( 'detail', '', ( #60 ) ) ;
#45 = ORIENTED_EDGE ( 'NONE', *, *, #77, .T. ) ;
#46 = DIRECTION ( 'NONE',  ( 0.0000000000000000000, 1.000000000000000000, 0.0000000000000000000 ) ) ;
#47 = ORIENTED_EDGE ( 'NONE', *, *, #59, .T. ) ;
#48 = PLANE ( 'NONE',  #189 ) ;
#49 = ORIENTED_EDGE ( 'NONE', *, *, #83, .F. ) ;
#50 = CARTESIAN_POINT ( 'NONE',  ( 2.565498867538170522E-31, 0.5999999999999988676, 7.347880794884105438E-17 ) ) ;
#51 = CARTESIAN_POINT ( 'NONE',  ( 1.326762908760390423E-13, 0.3999999999999956368, 38.00000000000000000 ) ) ;
#52 = CARTESIAN_POINT ( 'NONE',  ( 1.258736183148280878E-15, -4.415052202954810505E-17, 0.3605163714165375843 ) ) ;
#53 = CIRCLE ( 'NONE', #210, 0.4000000000000002998 ) ;
#54 = LINE ( 'NONE', #149, #254 ) ;
#55 = DIRECTION ( 'NONE',  ( 0.0000000000000000000, 1.000000000000000000, 0.0000000000000000000 ) ) ;
#56 = ORIENTED_EDGE ( 'NONE', *, *, #182, .F. ) ;
#57 = FACE_OUTER_BOUND ( 'NONE', #220, .T. ) ;
#58 = DATE_AND_TIME ( #207, #205 ) ;
#59 = EDGE_CURVE ( 'NONE', #218, #146, #151, .T. ) ;
#60 = PRODUCT ( '40657', '40657', '', ( #42 ) ) ;
#61 = AXIS2_PLACEMENT_3D ( 'NONE', #143, #126, #285 ) ;
#62 = ORIENTED_EDGE ( 'NONE', *, *, #18, .F. ) ;
#63 = EDGE_LOOP ( 'NONE', ( #245, #270 ) ) ;
#64 = CONICAL_SURFACE ( 'NONE', #242, 0.5999999999999956479, 1.029744258676649649 ) ;
#65 = EDGE_CURVE ( 'NONE', #333, #23, #202, .T. ) ;
#66 = DIRECTION ( 'NONE',  ( 1.000000000000000000, 0.0000000000000000000, 0.0000000000000000000 ) ) ;
#67 = CC_DESIGN_APPROVAL ( #191, ( #318 ) ) ;
#68 = ORIENTED_EDGE ( 'NONE', *, *, #188, .T. ) ;
#69 = DIRECTION ( 'NONE',  ( 3.491481338843133355E-15, -1.224646799147353207E-16, 1.000000000000000000 ) ) ;
#70 = ORIENTED_EDGE ( 'NONE', *, *, #18, .T. ) ;
#71 = DIRECTION ( 'NONE',  ( -3.491481338843133355E-15, 1.224646799147353207E-16, -1.000000000000000000 ) ) ;
#72 = EDGE_LOOP ( 'NONE', ( #273, #16, #162 ) ) ;
#73 = FACE_OUTER_BOUND ( 'NONE', #63, .T. ) ;
#74 = COORDINATED_UNIVERSAL_TIME_OFFSET ( 1, 0, .AHEAD. ) ;
#75 = FACE_OUTER_BOUND ( 'NONE', #296, .T. ) ;
#76 = LINE ( 'NONE', #50, #208 ) ;
#77 = EDGE_CURVE ( 'NONE', #298, #23, #106, .T. ) ;
#78 = CARTESIAN_POINT ( 'NONE',  ( 1.319779946082704535E-13, -4.629164900776995227E-15, 37.79999999999999716 ) ) ;
#79 = DIRECTION ( 'NONE',  ( -3.491481338843133355E-15, 1.224646799147353207E-16, -1.000000000000000000 ) ) ;
#80 = EDGE_CURVE ( 'NONE', #233, #291, #27, .T. ) ;
#81 = DIRECTION ( 'NONE',  ( 0.0000000000000000000, 1.000000000000000000, 0.0000000000000000000 ) ) ;
#82 = SECURITY_CLASSIFICATION_LEVEL ( 'unclassified' ) ;
#83 = EDGE_CURVE ( 'NONE', #146, #218, #53, .T. ) ;
#84 = CONICAL_SURFACE ( 'NONE', #29, 0.4000000000000002998, 0.7853981633974510546 ) ;
#85 = CALENDAR_DATE ( 2021, 2, 9 ) ;
#86 = CIRCLE ( 'NONE', #297, 0.6000000000000001998 ) ;
#87 = DATE_TIME_ROLE ( 'creation_date' ) ;
#88 = EDGE_CURVE ( 'NONE', #229, #300, #313, .T. ) ;
#89 = ORIENTED_EDGE ( 'NONE', *, *, #77, .F. ) ;
#90 = PRODUCT_DEFINITION ( 'UNKNOWN', '', #318, #132 ) ;
#91 = APPROVAL_ROLE ( '' ) ;
#92 = EDGE_LOOP ( 'NONE', ( #43, #187, #45 ) ) ;
#93 = CARTESIAN_POINT ( 'NONE',  ( 9.399432682282909427E-14, -0.5999999999999995337, 16.00000000000000000 ) ) ;
#94 = DIRECTION ( 'NONE',  ( -3.491481338843133355E-15, 1.224646799147353207E-16, -1.000000000000000000 ) ) ;
#95 = DIRECTION ( 'NONE',  ( 4.275831445896958607E-31, 1.000000000000000000, 1.224646799147353207E-16 ) ) ;
#96 = AXIS2_PLACEMENT_3D ( 'NONE', #301, #71, #166 ) ;
#97 = AXIS2_PLACEMENT_3D ( 'NONE', #52, #99, #127 ) ;
#98 = CARTESIAN_POINT ( 'NONE',  ( 1.258736183148280681E-15, -0.5999999999999956479, 0.3605163714165375288 ) ) ;
#99 = DIRECTION ( 'NONE',  ( 3.491481338843133355E-15, -1.224646799147353207E-16, 1.000000000000000000 ) ) ;
#100 = DIRECTION ( 'NONE',  ( -3.491481338843133355E-15, 1.224646799147353207E-16, -1.000000000000000000 ) ) ;
#101 = CARTESIAN_POINT ( 'NONE',  ( 1.332214991097121809E-15, 0.5999999999999956479, 0.3605163714165376398 ) ) ;
#102 = APPROVAL ( #152, 'UNSPECIFIED' ) ;
#103 = DIRECTION ( 'NONE',  ( -3.491481338843133355E-15, 1.224646799147353207E-16, -1.000000000000000000 ) ) ;
#104 = ORGANIZATION ( 'UNSPECIFIED', 'UNSPECIFIED', '' ) ;
#105 = DIRECTION ( 'NONE',  ( -3.491481338843133355E-15, 1.224646799147353207E-16, -1.000000000000000000 ) ) ;
#106 = CIRCLE ( 'NONE', #337, 0.5999999999999956479 ) ;
#107 = DATE_AND_TIME ( #11, #118 ) ;
#108 = CC_DESIGN_PERSON_AND_ORGANIZATION_ASSIGNMENT ( #322, #265, ( #318 ) ) ;
#109 = DIRECTION ( 'NONE',  ( 0.0000000000000000000, 0.0000000000000000000, 1.000000000000000000 ) ) ;
#110 = VECTOR ( 'NONE', #244, 1000.000000000000000 ) ;
#111 = LINE ( 'NONE', #15, #328 ) ;
#112 = DATE_AND_TIME ( #85, #212 ) ;
#113 = ORIENTED_EDGE ( 'NONE', *, *, #59, .F. ) ;
#114 = VECTOR ( 'NONE', #302, 999.9999999999998863 ) ;
#115 = ORIENTED_EDGE ( 'NONE', *, *, #306, .F. ) ;
#116 = ORIENTED_EDGE ( 'NONE', *, *, #272, .F. ) ;
#117 = ORIENTED_EDGE ( 'NONE', *, *, #177, .T. ) ;
#118 = LOCAL_TIME ( 15, 22, 30.00000000000000000, #268 ) ;
#119 = DIRECTION ( 'NONE',  ( 4.275831445896958607E-31, 1.000000000000000000, 1.224646799147353207E-16 ) ) ;
#120 = EDGE_LOOP ( 'NONE', ( #326, #117, #70, #89 ) ) ;
#121 = DIRECTION ( 'NONE',  ( -4.275831445896958607E-31, -1.000000000000000000, -1.224646799147353207E-16 ) ) ;
#122 = CARTESIAN_POINT ( 'NONE',  ( 1.319779946082704535E-13, -4.629164900776995227E-15, 37.79999999999999716 ) ) ;
#123 = ADVANCED_FACE ( 'NONE', ( #4 ), #287, .T. ) ;
#124 = CARTESIAN_POINT ( 'NONE',  ( 5.586370142149013368E-14, 4.499279347985525612E-33, 16.00000000000000000 ) ) ;
#125 = DIRECTION ( 'NONE',  ( -4.275831445896958607E-31, -1.000000000000000000, -1.224646799147353207E-16 ) ) ;
#126 = DIRECTION ( 'NONE',  ( -3.491481338843133355E-15, 1.224646799147353207E-16, -1.000000000000000000 ) ) ;
#127 = DIRECTION ( 'NONE',  ( -3.209883240645416443E-31, -1.000000000000000000, -9.035018104045936022E-17 ) ) ;
#128 = AXIS2_PLACEMENT_3D ( 'NONE', #299, #164, #119 ) ;
#129 = DATE_TIME_ROLE ( 'classification_date' ) ;
#130 = EDGE_CURVE ( 'NONE', #218, #229, #305, .T. ) ;
#131 = PERSON_AND_ORGANIZATION ( #230, #104 ) ;
#132 = DESIGN_CONTEXT ( 'detailed design', #6, 'design' ) ;
#133 = ADVANCED_FACE ( 'NONE', ( #57 ), #251, .T. ) ;
#134 = MANIFOLD_SOLID_BREP ( 'Corps-Déplacer/Copier1[1]', #14 ) ;
#135 = ORIENTED_EDGE ( 'NONE', *, *, #80, .T. ) ;
#136 = PERSON_AND_ORGANIZATION_ROLE ( 'design_owner' ) ;
#137 = DIRECTION ( 'NONE',  ( 4.275831445896958607E-31, 1.000000000000000000, 1.224646799147353207E-16 ) ) ;
#138 = AXIS2_PLACEMENT_3D ( 'NONE', #122, #314, #228 ) ;
#139 = CARTESIAN_POINT ( 'NONE',  ( 5.586370142149013368E-14, 0.5999999999999956479, 16.00000000000000000 ) ) ;
#140 = LINE ( 'NONE', #248, #320 ) ;
#141 = FACE_OUTER_BOUND ( 'NONE', #92, .T. ) ;
#142 = FACE_OUTER_BOUND ( 'NONE', #195, .T. ) ;
#143 = CARTESIAN_POINT ( 'NONE',  ( 5.586370142149013368E-14, -1.959434878635765131E-15, 16.00000000000000000 ) ) ;
#144 = AXIS2_PLACEMENT_3D ( 'NONE', #198, #307, #276 ) ;
#145 = APPROVAL_PERSON_ORGANIZATION ( #200, #330, #91 ) ;
#146 = VERTEX_POINT ( 'NONE', #289 ) ;
#147 = FACE_OUTER_BOUND ( 'NONE', #2, .T. ) ;
#148 = CARTESIAN_POINT ( 'NONE',  ( 1.326762908760390423E-13, -4.653657836759941941E-15, 38.00000000000000000 ) ) ;
#149 = CARTESIAN_POINT ( 'NONE',  ( 7.347880794884052436E-17, -0.5999999999999965361, -7.347880794884102973E-17 ) ) ;
#150 = AXIS2_PLACEMENT_3D ( 'NONE', #271, #227, #310 ) ;
#151 = CIRCLE ( 'NONE', #183, 0.4000000000000002998 ) ;
#152 = APPROVAL_STATUS ( 'not_yet_approved' ) ;
#153 = SHAPE_DEFINITION_REPRESENTATION ( #231, #33 ) ;
#154 = ORIENTED_EDGE ( 'NONE', *, *, #130, .F. ) ;
#155 = CC_DESIGN_DATE_AND_TIME_ASSIGNMENT ( #258, #129, ( #255 ) ) ;
#156 = VECTOR ( 'NONE', #284, 1000.000000000000000 ) ;
#157 = CC_DESIGN_SECURITY_CLASSIFICATION ( #255, ( #318 ) ) ;
#158 = APPROVAL_PERSON_ORGANIZATION ( #5, #102, #8 ) ;
#159 =( LENGTH_UNIT ( ) NAMED_UNIT ( * ) SI_UNIT ( .MILLI., .METRE. ) );
#160 = CC_DESIGN_DATE_AND_TIME_ASSIGNMENT ( #232, #87, ( #90 ) ) ;
#161 = ORIENTED_EDGE ( 'NONE', *, *, #237, .F. ) ;
#162 = ORIENTED_EDGE ( 'NONE', *, *, #217, .T. ) ;
#163 = EDGE_LOOP ( 'NONE', ( #10, #190, #56, #40 ) ) ;
#164 = DIRECTION ( 'NONE',  ( -3.491481338843133355E-15, 1.224646799147353207E-16, -1.000000000000000000 ) ) ;
#165 = ORIENTED_EDGE ( 'NONE', *, *, #38, .T. ) ;
#166 = DIRECTION ( 'NONE',  ( 4.275831445896958607E-31, 1.000000000000000000, 1.224646799147353207E-16 ) ) ;
#167 = CARTESIAN_POINT ( 'NONE',  ( 1.332214991097121809E-15, 0.5999999999999956479, 0.3605163714165376398 ) ) ;
#168 = ADVANCED_FACE ( 'NONE', ( #141 ), #64, .T. ) ;
#169 = FACE_OUTER_BOUND ( 'NONE', #216, .T. ) ;
#170 = FACE_OUTER_BOUND ( 'NONE', #72, .T. ) ;
#171 = CARTESIAN_POINT ( 'NONE',  ( 1.319779946082704535E-13, 0.5999999999999955369, 37.79999999999999716 ) ) ;
#172 = ORIENTED_EDGE ( 'NONE', *, *, #7, .T. ) ;
#173 = CARTESIAN_POINT ( 'NONE',  ( 5.586370142149013368E-14, 0.5999999999999956479, 16.00000000000000000 ) ) ;
#174 = DIRECTION ( 'NONE',  ( 0.0000000000000000000, 1.000000000000000000, 0.0000000000000000000 ) ) ;
#175 = AXIS2_PLACEMENT_3D ( 'NONE', #247, #24, #125 ) ;
#176 = ADVANCED_FACE ( 'NONE', ( #281 ), #249, .T. ) ;
#177 = EDGE_CURVE ( 'NONE', #291, #233, #180, .T. ) ;
#178 = DIRECTION ( 'NONE',  ( -2.468850131082258244E-15, 0.7071067811865495711, -0.7071067811865454633 ) ) ;
#179 = CALENDAR_DATE ( 2021, 2, 9 ) ;
#180 = CIRCLE ( 'NONE', #150, 0.5999999999999975353 ) ;
#181 = COORDINATED_UNIVERSAL_TIME_OFFSET ( 1, 0, .AHEAD. ) ;
#182 = EDGE_CURVE ( 'NONE', #263, #214, #223, .T. ) ;
#183 = AXIS2_PLACEMENT_3D ( 'NONE', #148, #253, #55 ) ;
#184 = APPROVAL_DATE_TIME ( #58, #102 ) ;
#185 = CC_DESIGN_PERSON_AND_ORGANIZATION_ASSIGNMENT ( #37, #332, ( #318 ) ) ;
#186 = CARTESIAN_POINT ( 'NONE',  ( 9.399432682282896805E-14, -0.6000000000000049738, 37.79999999999999716 ) ) ;
#187 = ORIENTED_EDGE ( 'NONE', *, *, #203, .T. ) ;
#188 = EDGE_CURVE ( 'NONE', #229, #263, #76, .T. ) ;
#189 = AXIS2_PLACEMENT_3D ( 'NONE', #124, #226, #121 ) ;
#190 = ORIENTED_EDGE ( 'NONE', *, *, #306, .T. ) ;
#191 = APPROVAL ( #34, 'UNSPECIFIED' ) ;
#192 = CYLINDRICAL_SURFACE ( 'NONE', #128, 0.5999999999999988676 ) ;
#193 = ORIENTED_EDGE ( 'NONE', *, *, #217, .F. ) ;
#194 = CYLINDRICAL_SURFACE ( 'NONE', #96, 0.5999999999999988676 ) ;
#195 = EDGE_LOOP ( 'NONE', ( #113, #49 ) ) ;
#196 = PERSON_AND_ORGANIZATION ( #230, #104 ) ;
#197 = CARTESIAN_POINT ( 'NONE',  ( 0.0000000000000000000, 0.0000000000000000000, 0.0000000000000000000 ) ) ;
#198 = CARTESIAN_POINT ( 'NONE',  ( 1.258736183148280878E-15, -4.415052202954810505E-17, 0.3605163714165375843 ) ) ;
#199 = DIRECTION ( 'NONE',  ( -3.491481338843133355E-15, 1.224646799147353207E-16, -1.000000000000000000 ) ) ;
#200 = PERSON_AND_ORGANIZATION ( #230, #104 ) ;
#201 = DIRECTION ( 'NONE',  ( -3.209883240645416443E-31, -1.000000000000000000, -9.035018104045936022E-17 ) ) ;
#202 = LINE ( 'NONE', #101, #114 ) ;
#203 = EDGE_CURVE ( 'NONE', #333, #298, #224, .T. ) ;
#204 = DIRECTION ( 'NONE',  ( 0.0000000000000000000, 1.000000000000000000, 0.0000000000000000000 ) ) ;
#205 = LOCAL_TIME ( 15, 22, 30.00000000000000000, #286 ) ;
#206 = CARTESIAN_POINT ( 'NONE',  ( 1.326762908760390423E-13, -4.653657836759941941E-15, 38.00000000000000000 ) ) ;
#207 = CALENDAR_DATE ( 2021, 2, 9 ) ;
#208 = VECTOR ( 'NONE', #26, 1000.000000000000000 ) ;
#209 = APPROVAL_DATE_TIME ( #107, #191 ) ;
#210 = AXIS2_PLACEMENT_3D ( 'NONE', #257, #250, #204 ) ;
#211 = CC_DESIGN_PERSON_AND_ORGANIZATION_ASSIGNMENT ( #131, #235, ( #90 ) ) ;
#212 = LOCAL_TIME ( 15, 22, 30.00000000000000000, #74 ) ;
#213 = LOCAL_TIME ( 15, 22, 30.00000000000000000, #316 ) ;
#214 = VERTEX_POINT ( 'NONE', #93 ) ;
#215 = APPROVAL_ROLE ( '' ) ;
#216 = EDGE_LOOP ( 'NONE', ( #115, #325, #68, #269 ) ) ;
#217 = EDGE_CURVE ( 'NONE', #23, #298, #327, .T. ) ;
#218 = VERTEX_POINT ( 'NONE', #51 ) ;
#219 = CARTESIAN_POINT ( 'NONE',  ( 2.863469761026796509E-14, -0.5999999999999995337, 16.00000000000000000 ) ) ;
#220 = EDGE_LOOP ( 'NONE', ( #161, #20, #329, #116 ) ) ;
#221 = CARTESIAN_POINT ( 'NONE',  ( 1.258736183148280681E-15, -0.5999999999999956479, 0.3605163714165375288 ) ) ;
#222 = CARTESIAN_POINT ( 'NONE',  ( 0.0000000000000000000, 0.0000000000000000000, 0.0000000000000000000 ) ) ;
#223 = CIRCLE ( 'NONE', #312, 0.5999999999999975353 ) ;
#224 = LINE ( 'NONE', #98, #156 ) ;
#225 = AXIS2_PLACEMENT_3D ( 'NONE', #275, #79, #174 ) ;
#226 = DIRECTION ( 'NONE',  ( 3.491481338843133355E-15, -1.224646799147353207E-16, 1.000000000000000000 ) ) ;
#227 = DIRECTION ( 'NONE',  ( -3.491481338843133355E-15, 1.224646799147353207E-16, -1.000000000000000000 ) ) ;
#228 = DIRECTION ( 'NONE',  ( 0.0000000000000000000, 1.000000000000000000, 0.0000000000000000000 ) ) ;
#229 = VERTEX_POINT ( 'NONE', #171 ) ;
#230 = PERSON ( 'UNSPECIFIED', 'UNSPECIFIED', 'UNSPECIFIED', ('UNSPECIFIED'), ('UNSPECIFIED'), ('UNSPECIFIED') ) ;
#231 = PRODUCT_DEFINITION_SHAPE ( 'NONE', 'NONE',  #90 ) ;
#232 = DATE_AND_TIME ( #293, #213 ) ;
#233 = VERTEX_POINT ( 'NONE', #173 ) ;
#234 = AXIS2_PLACEMENT_3D ( 'NONE', #36, #109, #66 ) ;
#235 = PERSON_AND_ORGANIZATION_ROLE ( 'creator' ) ;
#236 = UNCERTAINTY_MEASURE_WITH_UNIT (LENGTH_MEASURE( 1.000000000000000082E-05 ), #159, 'distance_accuracy_value', 'NONE');
#237 = EDGE_CURVE ( 'NONE', #146, #300, #304, .T. ) ;
#238 = EDGE_LOOP ( 'NONE', ( #135, #172, #193, #62 ) ) ;
#239 = ADVANCED_FACE ( 'NONE', ( #142 ), #252, .F. ) ;
#240 = ORIENTED_EDGE ( 'NONE', *, *, #182, .T. ) ;
#241 = MANIFOLD_SOLID_BREP ( 'Corps-Déplacer/Copier1[2]', #267 ) ;
#242 = AXIS2_PLACEMENT_3D ( 'NONE', #334, #69, #201 ) ;
#243 = APPROVAL_STATUS ( 'not_yet_approved' ) ;
#244 = DIRECTION ( 'NONE',  ( -2.382254525458709186E-15, -0.7071067811865493491, -0.7071067811865456854 ) ) ;
#245 = ORIENTED_EDGE ( 'NONE', *, *, #80, .F. ) ;
#246 = CC_DESIGN_PERSON_AND_ORGANIZATION_ASSIGNMENT ( #260, #288, ( #255 ) ) ;
#247 = CARTESIAN_POINT ( 'NONE',  ( 5.586370142149013368E-14, 4.499279347985525612E-33, 16.00000000000000000 ) ) ;
#248 = CARTESIAN_POINT ( 'NONE',  ( 2.565498867538160450E-31, 0.5999999999999965361, 7.347880794884077088E-17 ) ) ;
#249 = CYLINDRICAL_SURFACE ( 'NONE', #31, 0.5999999999999965361 ) ;
#250 = DIRECTION ( 'NONE',  ( -3.491481338843133355E-15, 1.224646799147353207E-16, -1.000000000000000000 ) ) ;
#251 = CONICAL_SURFACE ( 'NONE', #13, 0.4000000000000002998, 0.7853981633974510546 ) ;
#252 = PLANE ( 'NONE',  #303 ) ;
#253 = DIRECTION ( 'NONE',  ( -3.491481338843133355E-15, 1.224646799147353207E-16, -1.000000000000000000 ) ) ;
#254 = VECTOR ( 'NONE', #199, 1000.000000000000000 ) ;
#255 = SECURITY_CLASSIFICATION ( '', '', #82 ) ;
#256 = DIRECTION ( 'NONE',  ( -3.491481338843133355E-15, 1.224646799147353207E-16, -1.000000000000000000 ) ) ;
#257 = CARTESIAN_POINT ( 'NONE',  ( 1.326762908760390423E-13, -4.653657836759941941E-15, 38.00000000000000000 ) ) ;
#258 = DATE_AND_TIME ( #179, #35 ) ;
#259 = DIRECTION ( 'NONE',  ( -3.491481338843133355E-15, 1.224646799147353207E-16, -1.000000000000000000 ) ) ;
#260 = PERSON_AND_ORGANIZATION ( #230, #104 ) ;
#261 = ADVANCED_FACE ( 'NONE', ( #147 ), #48, .F. ) ;
#262 = AXIS2_PLACEMENT_3D ( 'NONE', #222, #335, #95 ) ;
#263 = VERTEX_POINT ( 'NONE', #139 ) ;
#264 = APPROVAL_PERSON_ORGANIZATION ( #39, #191, #215 ) ;
#265 = PERSON_AND_ORGANIZATION_ROLE ( 'creator' ) ;
#266 =( NAMED_UNIT ( * ) SI_UNIT ( $, .STERADIAN. ) SOLID_ANGLE_UNIT ( ) );
#267 = CLOSED_SHELL ( 'NONE', ( #176, #12, #168, #123, #279 ) ) ;
#268 = COORDINATED_UNIVERSAL_TIME_OFFSET ( 1, 0, .AHEAD. ) ;
#269 = ORIENTED_EDGE ( 'NONE', *, *, #38, .F. ) ;
#270 = ORIENTED_EDGE ( 'NONE', *, *, #177, .F. ) ;
#271 = CARTESIAN_POINT ( 'NONE',  ( 5.586370142149013368E-14, -1.959434878635765131E-15, 16.00000000000000000 ) ) ;
#272 = EDGE_CURVE ( 'NONE', #300, #229, #86, .T. ) ;
#273 = ORIENTED_EDGE ( 'NONE', *, *, #203, .F. ) ;
#274 = CARTESIAN_POINT ( 'NONE',  ( 1.326762908760390423E-13, 2.999519565323647819E-33, 38.00000000000000000 ) ) ;
#275 = CARTESIAN_POINT ( 'NONE',  ( 5.586370142149013368E-14, -1.959434878635765131E-15, 16.00000000000000000 ) ) ;
#276 = DIRECTION ( 'NONE',  ( 3.209883240645416443E-31, 1.000000000000000000, 9.035018104045936022E-17 ) ) ;
#277 = CARTESIAN_POINT ( 'NONE',  ( 1.326762908760390423E-13, 0.3999999999999956368, 38.00000000000000000 ) ) ;
#278 = APPLICATION_CONTEXT ( 'configuration controlled 3d designs of mechanical parts and assemblies' ) ;
#279 = ADVANCED_FACE ( 'NONE', ( #73 ), #30, .T. ) ;
#280 = APPLICATION_PROTOCOL_DEFINITION ( 'international standard', 'config_control_design', 1994, #6 ) ;
#281 = FACE_OUTER_BOUND ( 'NONE', #238, .T. ) ;
#282 = CARTESIAN_POINT ( 'NONE',  ( 1.326762908760390423E-13, -4.653657836759941941E-15, 38.00000000000000000 ) ) ;
#283 = ADVANCED_FACE ( 'NONE', ( #169 ), #192, .T. ) ;
#284 = DIRECTION ( 'NONE',  ( 1.798245827342160317E-15, -0.8571673007021098911, 0.5150380749100582634 ) ) ;
#285 = DIRECTION ( 'NONE',  ( 0.0000000000000000000, 1.000000000000000000, 0.0000000000000000000 ) ) ;
#286 = COORDINATED_UNIVERSAL_TIME_OFFSET ( 1, 0, .AHEAD. ) ;
#287 = CYLINDRICAL_SURFACE ( 'NONE', #262, 0.5999999999999965361 ) ;
#288 = PERSON_AND_ORGANIZATION_ROLE ( 'classification_officer' ) ;
#289 = CARTESIAN_POINT ( 'NONE',  ( 1.323883750821120902E-13, -0.4000000000000049627, 38.00000000000000000 ) ) ;
#290 = CIRCLE ( 'NONE', #61, 0.5999999999999975353 ) ;
#291 = VERTEX_POINT ( 'NONE', #219 ) ;
#292 = APPROVAL_DATE_TIME ( #112, #330 ) ;
#293 = CALENDAR_DATE ( 2021, 2, 9 ) ;
#294 = DIRECTION ( 'NONE',  ( -3.491481338843133355E-15, 1.224646799147353207E-16, -1.000000000000000000 ) ) ;
#295 = ADVANCED_FACE ( 'NONE', ( #331 ), #194, .T. ) ;
#296 = EDGE_LOOP ( 'NONE', ( #47, #319, #19, #154 ) ) ;
#297 = AXIS2_PLACEMENT_3D ( 'NONE', #78, #256, #46 ) ;
#298 = VERTEX_POINT ( 'NONE', #221 ) ;
#299 = CARTESIAN_POINT ( 'NONE',  ( 0.0000000000000000000, 0.0000000000000000000, 0.0000000000000000000 ) ) ;
#300 = VERTEX_POINT ( 'NONE', #186 ) ;
#301 = CARTESIAN_POINT ( 'NONE',  ( 0.0000000000000000000, 0.0000000000000000000, 0.0000000000000000000 ) ) ;
#302 = DIRECTION ( 'NONE',  ( 1.903218546456022717E-15, 0.8571673007021097801, 0.5150380749100585964 ) ) ;
#303 = AXIS2_PLACEMENT_3D ( 'NONE', #274, #100, #28 ) ;
#304 = LINE ( 'NONE', #3, #110 ) ;
#305 = LINE ( 'NONE', #277, #317 ) ;
#306 = EDGE_CURVE ( 'NONE', #300, #214, #111, .T. ) ;
#307 = DIRECTION ( 'NONE',  ( -3.491481338843133355E-15, 1.224646799147353207E-16, -1.000000000000000000 ) ) ;
#308 = DIRECTION ( 'NONE',  ( 0.0000000000000000000, 1.000000000000000000, 0.0000000000000000000 ) ) ;
#309 = CC_DESIGN_PERSON_AND_ORGANIZATION_ASSIGNMENT ( #196, #136, ( #60 ) ) ;
#310 = DIRECTION ( 'NONE',  ( 0.0000000000000000000, 1.000000000000000000, 0.0000000000000000000 ) ) ;
#311 = CARTESIAN_POINT ( 'NONE',  ( 1.258736183148280878E-15, -4.415052202954810505E-17, 0.3605163714165375843 ) ) ;
#312 = AXIS2_PLACEMENT_3D ( 'NONE', #336, #94, #22 ) ;
#313 = CIRCLE ( 'NONE', #138, 0.6000000000000001998 ) ;
#314 = DIRECTION ( 'NONE',  ( -3.491481338843133355E-15, 1.224646799147353207E-16, -1.000000000000000000 ) ) ;
#315 = DIRECTION ( 'NONE',  ( -3.491481338843133355E-15, 1.224646799147353207E-16, -1.000000000000000000 ) ) ;
#316 = COORDINATED_UNIVERSAL_TIME_OFFSET ( 1, 0, .AHEAD. ) ;
#317 = VECTOR ( 'NONE', #178, 1000.000000000000000 ) ;
#318 = PRODUCT_DEFINITION_FORMATION_WITH_SPECIFIED_SOURCE ( 'ANY', '', #60, .NOT_KNOWN. ) ;
#319 = ORIENTED_EDGE ( 'NONE', *, *, #237, .T. ) ;
#320 = VECTOR ( 'NONE', #259, 1000.000000000000000 ) ;
#321 =( NAMED_UNIT ( * ) PLANE_ANGLE_UNIT ( ) SI_UNIT ( $, .RADIAN. ) );
#322 = PERSON_AND_ORGANIZATION ( #230, #104 ) ;
#323 = APPLICATION_PROTOCOL_DEFINITION ( 'international standard', 'config_control_design', 1994, #278 ) ;
#324 = CC_DESIGN_APPROVAL ( #330, ( #90 ) ) ;
#325 = ORIENTED_EDGE ( 'NONE', *, *, #272, .T. ) ;
#326 = ORIENTED_EDGE ( 'NONE', *, *, #7, .F. ) ;
#327 = CIRCLE ( 'NONE', #144, 0.5999999999999956479 ) ;
#328 = VECTOR ( 'NONE', #294, 1000.000000000000000 ) ;
#329 = ORIENTED_EDGE ( 'NONE', *, *, #130, .T. ) ;
#330 = APPROVAL ( #243, 'UNSPECIFIED' ) ;
#331 = FACE_OUTER_BOUND ( 'NONE', #163, .T. ) ;
#332 = PERSON_AND_ORGANIZATION_ROLE ( 'design_supplier' ) ;
#333 = VERTEX_POINT ( 'NONE', #17 ) ;
#334 = CARTESIAN_POINT ( 'NONE',  ( 1.258736183148280878E-15, -4.415052202954810505E-17, 0.3605163714165375843 ) ) ;
#335 = DIRECTION ( 'NONE',  ( -3.491481338843133355E-15, 1.224646799147353207E-16, -1.000000000000000000 ) ) ;
#336 = CARTESIAN_POINT ( 'NONE',  ( 5.586370142149013368E-14, -1.959434878635765131E-15, 16.00000000000000000 ) ) ;
#337 = AXIS2_PLACEMENT_3D ( 'NONE', #311, #103, #25 ) ;
ENDSEC;
END-ISO-10303-21;
