ISO-10303-21;
HEADER;
FILE_DESCRIPTION (( 'STEP AP203' ),
    '1' );
FILE_NAME ('40655.step',
    '2021-10-07T13:47:57',
    ( '' ),
    ( '' ),
    'SwSTEP 2.0',
    'SolidWorks 2019',
    '' );
FILE_SCHEMA (( 'CONFIG_CONTROL_DESIGN' ));
ENDSEC;

DATA;
#1 = VERTEX_POINT ( 'NONE', #81 ) ;
#2 = APPROVAL_DATE_TIME ( #6, #175 ) ;
#3 = AXIS2_PLACEMENT_3D ( 'NONE', #80, #169, #13 ) ;
#4 = COORDINATED_UNIVERSAL_TIME_OFFSET ( 1, 0, .AHEAD. ) ;
#5 = DATE_TIME_ROLE ( 'classification_date' ) ;
#6 = DATE_AND_TIME ( #193, #146 ) ;
#7 = CONICAL_SURFACE ( 'NONE', #117, 0.8049999999999943867, 1.029744258676649649 ) ;
#8 = DIRECTION ( 'NONE',  ( 0.0000000000000000000, 1.000000000000000000, 0.0000000000000000000 ) ) ;
#9 = PERSON ( 'UNSPECIFIED', 'UNSPECIFIED', 'UNSPECIFIED', ('UNSPECIFIED'), ('UNSPECIFIED'), ('UNSPECIFIED') ) ;
#10 = DIRECTION ( 'NONE',  ( -4.275831445896958607E-31, -1.000000000000000000, -1.224646799147353207E-16 ) ) ;
#11 = DIRECTION ( 'NONE',  ( 4.275831445896957731E-31, 1.000000000000000000, 1.224646799147353207E-16 ) ) ;
#12 = DIRECTION ( 'NONE',  ( 3.491481338843133355E-15, -1.224646799147353207E-16, 1.000000000000000000 ) ) ;
#13 = DIRECTION ( 'NONE',  ( 4.275831445896958607E-31, 1.000000000000000000, 1.224646799147353207E-16 ) ) ;
#14 = EDGE_LOOP ( 'NONE', ( #87 ) ) ;
#15 = DIRECTION ( 'NONE',  ( 0.0000000000000000000, 1.000000000000000000, 0.0000000000000000000 ) ) ;
#16 = EDGE_LOOP ( 'NONE', ( #221 ) ) ;
#17 = CC_DESIGN_PERSON_AND_ORGANIZATION_ASSIGNMENT ( #77, #56, ( #154 ) ) ;
#18 = PERSON_AND_ORGANIZATION_ROLE ( 'design_supplier' ) ;
#19 = ORGANIZATION ( 'UNSPECIFIED', 'UNSPECIFIED', '' ) ;
#20 = DATE_AND_TIME ( #115, #168 ) ;
#21 = SHAPE_DEFINITION_REPRESENTATION ( #94, #78 ) ;
#22 = EDGE_CURVE ( 'NONE', #109, #109, #190, .T. ) ;
#23 = APPROVAL_STATUS ( 'not_yet_approved' ) ;
#24 = PLANE ( 'NONE',  #157 ) ;
#25 = APPROVAL ( #62, 'UNSPECIFIED' ) ;
#26 = PLANE ( 'NONE',  #147 ) ;
#27 = FACE_OUTER_BOUND ( 'NONE', #52, .T. ) ;
#28 = EDGE_LOOP ( 'NONE', ( #153 ) ) ;
#29 = CC_DESIGN_APPROVAL ( #66, ( #39 ) ) ;
#30 = DIRECTION ( 'NONE',  ( -3.491481338843133355E-15, 1.224646799147353207E-16, -1.000000000000000000 ) ) ;
#31 = CARTESIAN_POINT ( 'NONE',  ( 1.326762908760390423E-13, 5.999039130647367482E-33, 38.00000000000000000 ) ) ;
#32 = CARTESIAN_POINT ( 'NONE',  ( 1.319779946082704535E-13, 0.9999999999999963363, 37.79999999999999716 ) ) ;
#33 = AXIS2_PLACEMENT_3D ( 'NONE', #130, #196, #91 ) ;
#34 = MANIFOLD_SOLID_BREP ( 'Corps-Déplacer/Copier1[2]', #123 ) ;
#35 = AXIS2_PLACEMENT_3D ( 'NONE', #50, #48, #125 ) ;
#36 = PRODUCT_DEFINITION ( 'UNKNOWN', '', #154, #145 ) ;
#37 = PERSON_AND_ORGANIZATION ( #9, #19 ) ;
#38 = COORDINATED_UNIVERSAL_TIME_OFFSET ( 1, 0, .AHEAD. ) ;
#39 = SECURITY_CLASSIFICATION ( '', '', #96 ) ;
#40 = CC_DESIGN_DATE_AND_TIME_ASSIGNMENT ( #118, #180, ( #36 ) ) ;
#41 = APPROVAL_STATUS ( 'not_yet_approved' ) ;
#42 = CARTESIAN_POINT ( 'NONE',  ( 1.319779946082704535E-13, -4.629164900776995227E-15, 37.79999999999999716 ) ) ;
#43 = CARTESIAN_POINT ( 'NONE',  ( 4.189777606611760026E-14, 6.036533125213921723E-33, 12.00000000000000000 ) ) ;
#44 = CALENDAR_DATE ( 2021, 7, 10 ) ;
#45 = FACE_OUTER_BOUND ( 'NONE', #201, .T. ) ;
#46 = EDGE_CURVE ( 'NONE', #171, #171, #79, .T. ) ;
#47 = CIRCLE ( 'NONE', #134, 0.8049999999999943867 ) ;
#48 = DIRECTION ( 'NONE',  ( -3.491481338843133355E-15, 1.224646799147353207E-16, -1.000000000000000000 ) ) ;
#49 = CYLINDRICAL_SURFACE ( 'NONE', #207, 0.9999999999999991118 ) ;
#50 = CARTESIAN_POINT ( 'NONE',  ( 4.189777606611760026E-14, -1.469576158976823947E-15, 12.00000000000000000 ) ) ;
#51 = CARTESIAN_POINT ( 'NONE',  ( 1.688804379057277050E-15, -5.923528372297705280E-17, 0.4836927983171879220 ) ) ;
#52 = EDGE_LOOP ( 'NONE', ( #84 ) ) ;
#53 = APPROVAL_PERSON_ORGANIZATION ( #136, #25, #210 ) ;
#54 = APPROVAL_PERSON_ORGANIZATION ( #163, #175, #213 ) ;
#55 = CARTESIAN_POINT ( 'NONE',  ( 1.688804379057277445E-15, 0.8049999999999942757, 0.4836927983171880330 ) ) ;
#56 = PERSON_AND_ORGANIZATION_ROLE ( 'creator' ) ;
#57 = PERSON_AND_ORGANIZATION ( #9, #19 ) ;
#58 = ORIENTED_EDGE ( 'NONE', *, *, #46, .F. ) ;
#59 = PERSON_AND_ORGANIZATION_ROLE ( 'creator' ) ;
#60 = ORIENTED_EDGE ( 'NONE', *, *, #63, .F. ) ;
#61 = PERSON_AND_ORGANIZATION ( #9, #19 ) ;
#62 = APPROVAL_STATUS ( 'not_yet_approved' ) ;
#63 = EDGE_CURVE ( 'NONE', #88, #88, #160, .T. ) ;
#64 = CARTESIAN_POINT ( 'NONE',  ( 1.688804379057277050E-15, -5.923528372297705280E-17, 0.4836927983171879220 ) ) ;
#65 = DIRECTION ( 'NONE',  ( 4.784919116490060381E-31, 1.000000000000000000, 1.346834996876412430E-16 ) ) ;
#66 = APPROVAL ( #41, 'UNSPECIFIED' ) ;
#67 = DIRECTION ( 'NONE',  ( 3.491481338843133355E-15, -1.224646799147353207E-16, 1.000000000000000000 ) ) ;
#68 = ORIENTED_EDGE ( 'NONE', *, *, #114, .T. ) ;
#69 = DIRECTION ( 'NONE',  ( -3.491481338843133355E-15, 1.224646799147353207E-16, -1.000000000000000000 ) ) ;
#70 = ADVANCED_FACE ( 'NONE', ( #120 ), #26, .F. ) ;
#71 = VERTEX_POINT ( 'NONE', #55 ) ;
#72 = APPROVAL_PERSON_ORGANIZATION ( #37, #66, #98 ) ;
#73 =( GEOMETRIC_REPRESENTATION_CONTEXT ( 3 ) GLOBAL_UNCERTAINTY_ASSIGNED_CONTEXT ( ( #127 ) ) GLOBAL_UNIT_ASSIGNED_CONTEXT ( ( #119, #179, #199 ) ) REPRESENTATION_CONTEXT ( 'NONE', 'WORKASPACE' ) );
#74 = APPROVAL_DATE_TIME ( #176, #66 ) ;
#75 = COORDINATED_UNIVERSAL_TIME_OFFSET ( 1, 0, .AHEAD. ) ;
#76 = ADVANCED_FACE ( 'NONE', ( #202 ), #7, .T. ) ;
#77 = PERSON_AND_ORGANIZATION ( #9, #19 ) ;
#78 = ADVANCED_BREP_SHAPE_REPRESENTATION ( '40655', ( #121, #34, #223 ), #73 ) ;
#79 = CIRCLE ( 'NONE', #93, 0.8049999999999956080 ) ;
#80 = CARTESIAN_POINT ( 'NONE',  ( 0.0000000000000000000, 0.0000000000000000000, 0.0000000000000000000 ) ) ;
#81 = CARTESIAN_POINT ( 'NONE',  ( 1.326762908760390423E-13, 0.7999999999999962697, 38.00000000000000000 ) ) ;
#82 = CARTESIAN_POINT ( 'NONE',  ( 0.0000000000000000000, 0.0000000000000000000, 0.0000000000000000000 ) ) ;
#83 = CC_DESIGN_APPROVAL ( #25, ( #154 ) ) ;
#84 = ORIENTED_EDGE ( 'NONE', *, *, #101, .F. ) ;
#85 = ADVANCED_FACE ( 'NONE', ( #203 ), #216, .F. ) ;
#86 = EDGE_LOOP ( 'NONE', ( #138 ) ) ;
#87 = ORIENTED_EDGE ( 'NONE', *, *, #46, .T. ) ;
#88 = VERTEX_POINT ( 'NONE', #32 ) ;
#89 = AXIS2_PLACEMENT_3D ( 'NONE', #128, #200, #126 ) ;
#90 = CC_DESIGN_DATE_AND_TIME_ASSIGNMENT ( #20, #5, ( #39 ) ) ;
#91 = DIRECTION ( 'NONE',  ( 0.0000000000000000000, 1.000000000000000000, 0.0000000000000000000 ) ) ;
#92 = CARTESIAN_POINT ( 'NONE',  ( 1.326762908760390423E-13, -4.653657836759941941E-15, 38.00000000000000000 ) ) ;
#93 = AXIS2_PLACEMENT_3D ( 'NONE', #188, #220, #15 ) ;
#94 = PRODUCT_DEFINITION_SHAPE ( 'NONE', 'NONE',  #36 ) ;
#95 = ADVANCED_FACE ( 'NONE', ( #111, #217 ), #49, .T. ) ;
#96 = SECURITY_CLASSIFICATION_LEVEL ( 'unclassified' ) ;
#97 = AXIS2_PLACEMENT_3D ( 'NONE', #151, #67, #142 ) ;
#98 = APPROVAL_ROLE ( '' ) ;
#99 = APPLICATION_PROTOCOL_DEFINITION ( 'international standard', 'config_control_design', 1994, #131 ) ;
#100 = LOCAL_TIME ( 15, 47, 57.00000000000000000, #211 ) ;
#101 = EDGE_CURVE ( 'NONE', #71, #71, #47, .T. ) ;
#102 = PERSON_AND_ORGANIZATION_ROLE ( 'design_owner' ) ;
#103 = DIRECTION ( 'NONE',  ( 3.491481338843133355E-15, -1.224646799147353207E-16, 1.000000000000000000 ) ) ;
#104 = DIRECTION ( 'NONE',  ( -3.491481338843133355E-15, 1.224646799147353207E-16, -1.000000000000000000 ) ) ;
#105 = EDGE_LOOP ( 'NONE', ( #110 ) ) ;
#106 = LOCAL_TIME ( 15, 47, 57.00000000000000000, #75 ) ;
#107 = FACE_OUTER_BOUND ( 'NONE', #14, .T. ) ;
#108 = FACE_OUTER_BOUND ( 'NONE', #156, .T. ) ;
#109 = VERTEX_POINT ( 'NONE', #152 ) ;
#110 = ORIENTED_EDGE ( 'NONE', *, *, #177, .F. ) ;
#111 = FACE_OUTER_BOUND ( 'NONE', #28, .T. ) ;
#112 = AXIS2_PLACEMENT_3D ( 'NONE', #92, #113, #8 ) ;
#113 = DIRECTION ( 'NONE',  ( -3.491481338843133355E-15, 1.224646799147353207E-16, -1.000000000000000000 ) ) ;
#114 = EDGE_CURVE ( 'NONE', #1, #1, #186, .T. ) ;
#115 = CALENDAR_DATE ( 2021, 7, 10 ) ;
#116 = COORDINATED_UNIVERSAL_TIME_OFFSET ( 1, 0, .AHEAD. ) ;
#117 = AXIS2_PLACEMENT_3D ( 'NONE', #51, #12, #129 ) ;
#118 = DATE_AND_TIME ( #135, #100 ) ;
#119 =( LENGTH_UNIT ( ) NAMED_UNIT ( * ) SI_UNIT ( .MILLI., .METRE. ) );
#120 = FACE_OUTER_BOUND ( 'NONE', #172, .T. ) ;
#121 = MANIFOLD_SOLID_BREP ( 'Corps-Déplacer/Copier1[1]', #206 ) ;
#122 = PERSON_AND_ORGANIZATION ( #9, #19 ) ;
#123 = CLOSED_SHELL ( 'NONE', ( #76, #181, #218 ) ) ;
#124 = CARTESIAN_POINT ( 'NONE',  ( 4.189777606611760026E-14, 0.8049999999999940536, 12.00000000000000000 ) ) ;
#125 = DIRECTION ( 'NONE',  ( 0.0000000000000000000, 1.000000000000000000, 0.0000000000000000000 ) ) ;
#126 = DIRECTION ( 'NONE',  ( 0.0000000000000000000, 1.000000000000000000, 0.0000000000000000000 ) ) ;
#127 = UNCERTAINTY_MEASURE_WITH_UNIT (LENGTH_MEASURE( 1.000000000000000082E-05 ), #119, 'distance_accuracy_value', 'NONE');
#128 = CARTESIAN_POINT ( 'NONE',  ( 1.326762908760390423E-13, -4.653657836759941941E-15, 38.00000000000000000 ) ) ;
#129 = DIRECTION ( 'NONE',  ( -4.784919116490060381E-31, -1.000000000000000000, -1.346834996876412430E-16 ) ) ;
#130 = CARTESIAN_POINT ( 'NONE',  ( 4.307702356526584588E-14, -1.510938593287096333E-15, 12.33774990747594025 ) ) ;
#131 = APPLICATION_CONTEXT ( 'configuration controlled 3d designs of mechanical parts and assemblies' ) ;
#132 = CONICAL_SURFACE ( 'NONE', #112, 0.8000000000000009326, 0.7853981633974512766 ) ;
#133 = CC_DESIGN_PERSON_AND_ORGANIZATION_ASSIGNMENT ( #214, #59, ( #36 ) ) ;
#134 = AXIS2_PLACEMENT_3D ( 'NONE', #64, #140, #65 ) ;
#135 = CALENDAR_DATE ( 2021, 7, 10 ) ;
#136 = PERSON_AND_ORGANIZATION ( #9, #19 ) ;
#137 = CC_DESIGN_APPROVAL ( #175, ( #36 ) ) ;
#138 = ORIENTED_EDGE ( 'NONE', *, *, #63, .T. ) ;
#139 = CYLINDRICAL_SURFACE ( 'NONE', #3, 0.8049999999999949418 ) ;
#140 = DIRECTION ( 'NONE',  ( -3.491481338843133355E-15, 1.224646799147353207E-16, -1.000000000000000000 ) ) ;
#141 = FACE_BOUND ( 'NONE', #158, .T. ) ;
#142 = DIRECTION ( 'NONE',  ( 0.0000000000000000000, -1.000000000000000000, 0.0000000000000000000 ) ) ;
#143 = EDGE_LOOP ( 'NONE', ( #187 ) ) ;
#144 = AXIS2_PLACEMENT_3D ( 'NONE', #31, #30, #155 ) ;
#145 = DESIGN_CONTEXT ( 'detailed design', #191, 'design' ) ;
#146 = LOCAL_TIME ( 15, 47, 57.00000000000000000, #116 ) ;
#147 = AXIS2_PLACEMENT_3D ( 'NONE', #166, #167, #182 ) ;
#148 = CARTESIAN_POINT ( 'NONE',  ( 0.0000000000000000000, 0.0000000000000000000, 0.0000000000000000000 ) ) ;
#149 = CALENDAR_DATE ( 2021, 7, 10 ) ;
#150 = APPROVAL_DATE_TIME ( #164, #25 ) ;
#151 = CARTESIAN_POINT ( 'NONE',  ( 4.307702356526584588E-14, -1.510938593287096333E-15, 12.33774990747594025 ) ) ;
#152 = CARTESIAN_POINT ( 'NONE',  ( 4.307702356526584588E-14, 0.9999999999999961142, 12.33774990747594025 ) ) ;
#153 = ORIENTED_EDGE ( 'NONE', *, *, #22, .F. ) ;
#154 = PRODUCT_DEFINITION_FORMATION_WITH_SPECIFIED_SOURCE ( 'ANY', '', #174, .NOT_KNOWN. ) ;
#155 = DIRECTION ( 'NONE',  ( 4.275831445896958607E-31, 1.000000000000000000, 1.224646799147353207E-16 ) ) ;
#156 = EDGE_LOOP ( 'NONE', ( #60 ) ) ;
#157 = AXIS2_PLACEMENT_3D ( 'NONE', #43, #103, #10 ) ;
#158 = EDGE_LOOP ( 'NONE', ( #68 ) ) ;
#159 = CC_DESIGN_SECURITY_CLASSIFICATION ( #39, ( #154 ) ) ;
#160 = CIRCLE ( 'NONE', #222, 1.000000000000000888 ) ;
#161 = DIRECTION ( 'NONE',  ( 1.000000000000000000, 0.0000000000000000000, 0.0000000000000000000 ) ) ;
#162 = ADVANCED_FACE ( 'NONE', ( #108, #141 ), #132, .T. ) ;
#163 = PERSON_AND_ORGANIZATION ( #9, #19 ) ;
#164 = DATE_AND_TIME ( #44, #194 ) ;
#165 = CC_DESIGN_PERSON_AND_ORGANIZATION_ASSIGNMENT ( #61, #178, ( #39 ) ) ;
#166 = CARTESIAN_POINT ( 'NONE',  ( 4.189777606611760026E-14, 6.036533125213921723E-33, 12.00000000000000000 ) ) ;
#167 = DIRECTION ( 'NONE',  ( 3.491481338843133355E-15, -1.224646799147353207E-16, 1.000000000000000000 ) ) ;
#168 = LOCAL_TIME ( 15, 47, 57.00000000000000000, #4 ) ;
#169 = DIRECTION ( 'NONE',  ( -3.491481338843133355E-15, 1.224646799147353207E-16, -1.000000000000000000 ) ) ;
#170 = DIRECTION ( 'NONE',  ( 0.0000000000000000000, 1.000000000000000000, 0.0000000000000000000 ) ) ;
#171 = VERTEX_POINT ( 'NONE', #124 ) ;
#172 = EDGE_LOOP ( 'NONE', ( #183 ) ) ;
#173 = EDGE_LOOP ( 'NONE', ( #185 ) ) ;
#174 = PRODUCT ( '40655', '40655', '', ( #208 ) ) ;
#175 = APPROVAL ( #23, 'UNSPECIFIED' ) ;
#176 = DATE_AND_TIME ( #149, #106 ) ;
#177 = EDGE_CURVE ( 'NONE', #197, #197, #212, .T. ) ;
#178 = PERSON_AND_ORGANIZATION_ROLE ( 'classification_officer' ) ;
#179 =( NAMED_UNIT ( * ) PLANE_ANGLE_UNIT ( ) SI_UNIT ( $, .RADIAN. ) );
#180 = DATE_TIME_ROLE ( 'creation_date' ) ;
#181 = ADVANCED_FACE ( 'NONE', ( #27, #107 ), #139, .T. ) ;
#182 = DIRECTION ( 'NONE',  ( -4.275831445896958607E-31, -1.000000000000000000, -1.224646799147353207E-16 ) ) ;
#183 = ORIENTED_EDGE ( 'NONE', *, *, #177, .T. ) ;
#184 = CC_DESIGN_PERSON_AND_ORGANIZATION_ASSIGNMENT ( #57, #18, ( #154 ) ) ;
#185 = ORIENTED_EDGE ( 'NONE', *, *, #101, .T. ) ;
#186 = CIRCLE ( 'NONE', #89, 0.8000000000000009326 ) ;
#187 = ORIENTED_EDGE ( 'NONE', *, *, #22, .T. ) ;
#188 = CARTESIAN_POINT ( 'NONE',  ( 4.189777606611760026E-14, -1.469576158976823947E-15, 12.00000000000000000 ) ) ;
#189 = CONICAL_SURFACE ( 'NONE', #97, 0.9999999999999976685, 0.5235987755982920433 ) ;
#190 = CIRCLE ( 'NONE', #33, 0.9999999999999976685 ) ;
#191 = APPLICATION_CONTEXT ( 'configuration controlled 3d designs of mechanical parts and assemblies' ) ;
#192 = APPLICATION_PROTOCOL_DEFINITION ( 'international standard', 'config_control_design', 1994, #191 ) ;
#193 = CALENDAR_DATE ( 2021, 7, 10 ) ;
#194 = LOCAL_TIME ( 15, 47, 57.00000000000000000, #38 ) ;
#195 = DIRECTION ( 'NONE',  ( 0.0000000000000000000, 0.0000000000000000000, 1.000000000000000000 ) ) ;
#196 = DIRECTION ( 'NONE',  ( -3.491481338843133355E-15, 1.224646799147353207E-16, -1.000000000000000000 ) ) ;
#197 = VERTEX_POINT ( 'NONE', #215 ) ;
#198 = FACE_BOUND ( 'NONE', #105, .T. ) ;
#199 =( NAMED_UNIT ( * ) SI_UNIT ( $, .STERADIAN. ) SOLID_ANGLE_UNIT ( ) );
#200 = DIRECTION ( 'NONE',  ( -3.491481338843133355E-15, 1.224646799147353207E-16, -1.000000000000000000 ) ) ;
#201 = EDGE_LOOP ( 'NONE', ( #58 ) ) ;
#202 = FACE_OUTER_BOUND ( 'NONE', #173, .T. ) ;
#203 = FACE_OUTER_BOUND ( 'NONE', #16, .T. ) ;
#204 = CC_DESIGN_PERSON_AND_ORGANIZATION_ASSIGNMENT ( #122, #102, ( #174 ) ) ;
#205 = ADVANCED_FACE ( 'NONE', ( #198, #219 ), #189, .T. ) ;
#206 = CLOSED_SHELL ( 'NONE', ( #70, #205, #95, #162, #85 ) ) ;
#207 = AXIS2_PLACEMENT_3D ( 'NONE', #82, #104, #11 ) ;
#208 = MECHANICAL_CONTEXT ( 'NONE', #131, 'mechanical' ) ;
#209 = PRODUCT_RELATED_PRODUCT_CATEGORY ( 'detail', '', ( #174 ) ) ;
#210 = APPROVAL_ROLE ( '' ) ;
#211 = COORDINATED_UNIVERSAL_TIME_OFFSET ( 1, 0, .AHEAD. ) ;
#212 = CIRCLE ( 'NONE', #35, 0.8049999999999956080 ) ;
#213 = APPROVAL_ROLE ( '' ) ;
#214 = PERSON_AND_ORGANIZATION ( #9, #19 ) ;
#215 = CARTESIAN_POINT ( 'NONE',  ( 4.189777606611760026E-14, 0.8049999999999940536, 12.00000000000000000 ) ) ;
#216 = PLANE ( 'NONE',  #144 ) ;
#217 = FACE_OUTER_BOUND ( 'NONE', #86, .T. ) ;
#218 = ADVANCED_FACE ( 'NONE', ( #45 ), #24, .T. ) ;
#219 = FACE_OUTER_BOUND ( 'NONE', #143, .T. ) ;
#220 = DIRECTION ( 'NONE',  ( -3.491481338843133355E-15, 1.224646799147353207E-16, -1.000000000000000000 ) ) ;
#221 = ORIENTED_EDGE ( 'NONE', *, *, #114, .F. ) ;
#222 = AXIS2_PLACEMENT_3D ( 'NONE', #42, #69, #170 ) ;
#223 = AXIS2_PLACEMENT_3D ( 'NONE', #148, #195, #161 ) ;
ENDSEC;
END-ISO-10303-21;
