ISO-10303-21;
HEADER;
FILE_DESCRIPTION (( 'STEP AP203' ),
    '1' );
FILE_NAME ('40608.step',
    '2021-09-02T13:22:29',
    ( '' ),
    ( '' ),
    'SwSTEP 2.0',
    'SolidWorks 2019',
    '' );
FILE_SCHEMA (( 'CONFIG_CONTROL_DESIGN' ));
ENDSEC;

DATA;
#1 = DIRECTION ( 'NONE',  ( 3.491481338843133355E-15, -1.224646799147353454E-16, 1.000000000000000000 ) ) ;
#2 = APPROVAL ( #301, 'UNSPECIFIED' ) ;
#3 = MECHANICAL_CONTEXT ( 'NONE', #9, 'mechanical' ) ;
#4 = FACE_OUTER_BOUND ( 'NONE', #252, .T. ) ;
#5 = ORIENTED_EDGE ( 'NONE', *, *, #82, .F. ) ;
#6 = DIRECTION ( 'NONE',  ( 4.275831445896959482E-31, 1.000000000000000000, 1.224646799147353454E-16 ) ) ;
#7 = AXIS2_PLACEMENT_3D ( 'NONE', #275, #73, #248 ) ;
#8 = ORGANIZATION ( 'UNSPECIFIED', 'UNSPECIFIED', '' ) ;
#9 = APPLICATION_CONTEXT ( 'configuration controlled 3d designs of mechanical parts and assemblies' ) ;
#10 = PERSON_AND_ORGANIZATION_ROLE ( 'design_owner' ) ;
#11 = CARTESIAN_POINT ( 'NONE',  ( 2.119329172677781757E-13, -7.433606070824434221E-15, 60.69999999999999574 ) ) ;
#12 = ADVANCED_FACE ( 'NONE', ( #134 ), #299, .T. ) ;
#13 = CLOSED_SHELL ( 'NONE', ( #49, #62, #29, #96, #12, #308 ) ) ;
#14 = CC_DESIGN_APPROVAL ( #127, ( #38 ) ) ;
#15 = DESIGN_CONTEXT ( 'detailed design', #25, 'design' ) ;
#16 = APPROVAL_ROLE ( '' ) ;
#17 = CIRCLE ( 'NONE', #192, 1.449999999999992628 ) ;
#18 = PERSON_AND_ORGANIZATION ( #122, #8 ) ;
#19 = LINE ( 'NONE', #212, #120 ) ;
#20 = AXIS2_PLACEMENT_3D ( 'NONE', #319, #78, #74 ) ;
#21 = CARTESIAN_POINT ( 'NONE',  ( 6.199955596550584637E-31, 1.449999999999998623, 1.775737858763660930E-16 ) ) ;
#22 = ORIENTED_EDGE ( 'NONE', *, *, #173, .T. ) ;
#23 = CONICAL_SURFACE ( 'NONE', #48, 1.449999999999992628, 1.029744258676649649 ) ;
#24 = PLANE ( 'NONE',  #331 ) ;
#25 = APPLICATION_CONTEXT ( 'configuration controlled 3d designs of mechanical parts and assemblies' ) ;
#26 = VERTEX_POINT ( 'NONE', #45 ) ;
#27 = CARTESIAN_POINT ( 'NONE',  ( 2.129803616694311221E-13, -7.470345474798856659E-15, 61.00000000000000000 ) ) ;
#28 = DIRECTION ( 'NONE',  ( 3.491481338843133355E-15, -1.224646799147353454E-16, 1.000000000000000000 ) ) ;
#29 = ADVANCED_FACE ( 'NONE', ( #222 ), #245, .F. ) ;
#30 = LOCAL_TIME ( 15, 22, 29.00000000000000000, #264 ) ;
#31 =( NAMED_UNIT ( * ) SI_UNIT ( $, .STERADIAN. ) SOLID_ANGLE_UNIT ( ) );
#32 = CARTESIAN_POINT ( 'NONE',  ( 2.129803616694311221E-13, 1.149999999999992584, 61.00000000000000000 ) ) ;
#33 = VECTOR ( 'NONE', #109, 1000.000000000000000 ) ;
#34 = DIRECTION ( 'NONE',  ( -3.491481338843133355E-15, 1.224646799147353454E-16, -1.000000000000000000 ) ) ;
#35 = EDGE_CURVE ( 'NONE', #335, #205, #118, .T. ) ;
#36 = LOCAL_TIME ( 15, 22, 29.00000000000000000, #217 ) ;
#37 = DIRECTION ( 'NONE',  ( 0.0000000000000000000, 1.000000000000000000, 0.0000000000000000000 ) ) ;
#38 = PRODUCT_DEFINITION_FORMATION_WITH_SPECIFIED_SOURCE ( 'ANY', '', #84, .NOT_KNOWN. ) ;
#39 = DIRECTION ( 'NONE',  ( -2.382254525458722992E-15, -0.7071067811865455743, -0.7071067811865493491 ) ) ;
#40 = ADVANCED_FACE ( 'NONE', ( #4 ), #135, .T. ) ;
#41 = VECTOR ( 'NONE', #47, 999.9999999999998863 ) ;
#42 = CARTESIAN_POINT ( 'NONE',  ( 1.152188841818234133E-13, 1.449999999999992850, 33.00000000000000000 ) ) ;
#43 = AXIS2_PLACEMENT_3D ( 'NONE', #99, #314, #6 ) ;
#44 = PERSON_AND_ORGANIZATION ( #122, #8 ) ;
#45 = CARTESIAN_POINT ( 'NONE',  ( 3.041945775941684196E-15, -1.449999999999992628, 0.8712478975899673461 ) ) ;
#46 = MANIFOLD_SOLID_BREP ( 'Corps-Déplacer/Copier1[2]', #293 ) ;
#47 = DIRECTION ( 'NONE',  ( 1.903218546456022717E-15, 0.8571673007021097801, 0.5150380749100585964 ) ) ;
#48 = AXIS2_PLACEMENT_3D ( 'NONE', #286, #98, #323 ) ;
#49 = ADVANCED_FACE ( 'NONE', ( #163 ), #106, .T. ) ;
#50 = ORIENTED_EDGE ( 'NONE', *, *, #259, .F. ) ;
#51 = DIRECTION ( 'NONE',  ( -4.275831445896959482E-31, -1.000000000000000000, -1.224646799147353454E-16 ) ) ;
#52 = EDGE_LOOP ( 'NONE', ( #231, #249, #199, #71 ) ) ;
#53 = CIRCLE ( 'NONE', #202, 1.449999999999992628 ) ;
#54 = ORIENTED_EDGE ( 'NONE', *, *, #79, .T. ) ;
#55 = AXIS2_PLACEMENT_3D ( 'NONE', #213, #326, #190 ) ;
#56 = EDGE_LOOP ( 'NONE', ( #68, #282, #336, #318 ) ) ;
#57 = EDGE_LOOP ( 'NONE', ( #77, #54, #309, #50 ) ) ;
#58 = CARTESIAN_POINT ( 'NONE',  ( 1.152188841818234133E-13, -4.041334437186266989E-15, 33.00000000000000000 ) ) ;
#59 = AXIS2_PLACEMENT_3D ( 'NONE', #117, #272, #72 ) ;
#60 = EDGE_CURVE ( 'NONE', #140, #26, #17, .T. ) ;
#61 = CARTESIAN_POINT ( 'NONE',  ( 3.219519561818050634E-15, 1.449999999999992628, 0.8712478975899677902 ) ) ;
#62 = ADVANCED_FACE ( 'NONE', ( #303 ), #191, .T. ) ;
#63 = CARTESIAN_POINT ( 'NONE',  ( 2.119329172677781757E-13, 1.449999999999992850, 60.69999999999999574 ) ) ;
#64 = VECTOR ( 'NONE', #39, 1000.000000000000114 ) ;
#65 = FACE_OUTER_BOUND ( 'NONE', #168, .T. ) ;
#66 = CIRCLE ( 'NONE', #332, 1.449999999999996847 ) ;
#67 = CARTESIAN_POINT ( 'NONE',  ( 2.129803616694311221E-13, -7.470345474798856659E-15, 61.00000000000000000 ) ) ;
#68 = ORIENTED_EDGE ( 'NONE', *, *, #298, .T. ) ;
#69 = CARTESIAN_POINT ( 'NONE',  ( 1.152188841818234133E-13, -4.041334437186266989E-15, 33.00000000000000000 ) ) ;
#70 = APPROVAL_PERSON_ORGANIZATION ( #18, #2, #107 ) ;
#71 = ORIENTED_EDGE ( 'NONE', *, *, #100, .F. ) ;
#72 = DIRECTION ( 'NONE',  ( 4.275831445896958607E-31, 1.000000000000000000, 1.224646799147353454E-16 ) ) ;
#73 = DIRECTION ( 'NONE',  ( -3.491481338843133355E-15, 1.224646799147353454E-16, -1.000000000000000000 ) ) ;
#74 = DIRECTION ( 'NONE',  ( 0.0000000000000000000, 1.000000000000000000, 0.0000000000000000000 ) ) ;
#75 = AXIS2_PLACEMENT_3D ( 'NONE', #334, #160, #112 ) ;
#76 = SECURITY_CLASSIFICATION ( '', '', #131 ) ;
#77 = ORIENTED_EDGE ( 'NONE', *, *, #144, .F. ) ;
#78 = DIRECTION ( 'NONE',  ( -3.491481338843133355E-15, 1.224646799147353454E-16, -1.000000000000000000 ) ) ;
#79 = EDGE_CURVE ( 'NONE', #115, #97, #91, .T. ) ;
#80 = EDGE_CURVE ( 'NONE', #166, #140, #273, .T. ) ;
#81 = DIRECTION ( 'NONE',  ( 0.0000000000000000000, 1.000000000000000000, 0.0000000000000000000 ) ) ;
#82 = EDGE_CURVE ( 'NONE', #276, #284, #186, .T. ) ;
#83 = CALENDAR_DATE ( 2021, 2, 9 ) ;
#84 = PRODUCT ( '40608', '40608', '', ( #3 ) ) ;
#85 = CYLINDRICAL_SURFACE ( 'NONE', #337, 1.449999999999994627 ) ;
#86 = DIRECTION ( 'NONE',  ( -3.491481338843133355E-15, 1.224646799147353454E-16, -1.000000000000000000 ) ) ;
#87 = APPROVAL_DATE_TIME ( #312, #2 ) ;
#88 = CARTESIAN_POINT ( 'NONE',  ( 3.219519561818050634E-15, 1.449999999999992628, 0.8712478975899677902 ) ) ;
#89 = ADVANCED_FACE ( 'NONE', ( #279 ), #24, .T. ) ;
#90 = EDGE_LOOP ( 'NONE', ( #138, #195, #224 ) ) ;
#91 = CIRCLE ( 'NONE', #174, 1.149999999999999911 ) ;
#92 = DIRECTION ( 'NONE',  ( -3.491481338843133355E-15, 1.224646799147353454E-16, -1.000000000000000000 ) ) ;
#93 = APPROVAL_PERSON_ORGANIZATION ( #44, #127, #16 ) ;
#94 = CYLINDRICAL_SURFACE ( 'NONE', #322, 1.449999999999998623 ) ;
#95 = ORIENTED_EDGE ( 'NONE', *, *, #181, .F. ) ;
#96 = ADVANCED_FACE ( 'NONE', ( #307 ), #94, .T. ) ;
#97 = VERTEX_POINT ( 'NONE', #32 ) ;
#98 = DIRECTION ( 'NONE',  ( 3.491481338843133355E-15, -1.224646799147353454E-16, 1.000000000000000000 ) ) ;
#99 = CARTESIAN_POINT ( 'NONE',  ( 2.129803616694311221E-13, 8.623618750305573137E-33, 61.00000000000000000 ) ) ;
#100 = EDGE_CURVE ( 'NONE', #205, #146, #267, .T. ) ;
#101 = APPROVAL_ROLE ( '' ) ;
#102 = CALENDAR_DATE ( 2021, 2, 9 ) ;
#103 = CYLINDRICAL_SURFACE ( 'NONE', #55, 1.449999999999994627 ) ;
#104 = CARTESIAN_POINT ( 'NONE',  ( 2.131211960513330763E-13, -1.150000000000007461, 61.00000000000000000 ) ) ;
#105 = APPLICATION_PROTOCOL_DEFINITION ( 'international standard', 'config_control_design', 1994, #25 ) ;
#106 = CONICAL_SURFACE ( 'NONE', #263, 1.149999999999999911, 0.7853981633974457255 ) ;
#107 = APPROVAL_ROLE ( '' ) ;
#108 = APPROVAL_DATE_TIME ( #180, #218 ) ;
#109 = DIRECTION ( 'NONE',  ( 1.798245827342160317E-15, -0.8571673007021098911, 0.5150380749100582634 ) ) ;
#110 = CC_DESIGN_PERSON_AND_ORGANIZATION_ASSIGNMENT ( #233, #10, ( #84 ) ) ;
#111 = SHAPE_DEFINITION_REPRESENTATION ( #219, #285 ) ;
#112 = DIRECTION ( 'NONE',  ( -4.275831445896959482E-31, -1.000000000000000000, -1.224646799147353454E-16 ) ) ;
#113 = DIRECTION ( 'NONE',  ( 4.275831445896959482E-31, 1.000000000000000000, 1.224646799147353454E-16 ) ) ;
#114 = CARTESIAN_POINT ( 'NONE',  ( 1.152188841818234133E-13, 1.087325842429838692E-32, 33.00000000000000000 ) ) ;
#115 = VERTEX_POINT ( 'NONE', #296 ) ;
#116 = AXIS2_PLACEMENT_3D ( 'NONE', #294, #290, #185 ) ;
#117 = CARTESIAN_POINT ( 'NONE',  ( 0.0000000000000000000, 0.0000000000000000000, 0.0000000000000000000 ) ) ;
#118 = LINE ( 'NONE', #139, #315 ) ;
#119 = ORIENTED_EDGE ( 'NONE', *, *, #298, .F. ) ;
#120 = VECTOR ( 'NONE', #155, 1000.000000000000000 ) ;
#121 = FACE_OUTER_BOUND ( 'NONE', #257, .T. ) ;
#122 = PERSON ( 'UNSPECIFIED', 'UNSPECIFIED', 'UNSPECIFIED', ('UNSPECIFIED'), ('UNSPECIFIED'), ('UNSPECIFIED') ) ;
#123 = ORIENTED_EDGE ( 'NONE', *, *, #35, .T. ) ;
#124 = CARTESIAN_POINT ( 'NONE',  ( 1.152188841818234133E-13, -4.041334437186266989E-15, 33.00000000000000000 ) ) ;
#125 = CC_DESIGN_PERSON_AND_ORGANIZATION_ASSIGNMENT ( #295, #243, ( #38 ) ) ;
#126 = CARTESIAN_POINT ( 'NONE',  ( 0.0000000000000000000, 0.0000000000000000000, 0.0000000000000000000 ) ) ;
#127 = APPROVAL ( #271, 'UNSPECIFIED' ) ;
#128 = CIRCLE ( 'NONE', #204, 1.449999999999996847 ) ;
#129 = PERSON_AND_ORGANIZATION ( #122, #8 ) ;
#130 = UNCERTAINTY_MEASURE_WITH_UNIT (LENGTH_MEASURE( 1.000000000000000082E-05 ), #169, 'distance_accuracy_value', 'NONE');
#131 = SECURITY_CLASSIFICATION_LEVEL ( 'unclassified' ) ;
#132 = PERSON_AND_ORGANIZATION ( #122, #8 ) ;
#133 = CARTESIAN_POINT ( 'NONE',  ( 0.0000000000000000000, 0.0000000000000000000, 0.0000000000000000000 ) ) ;
#134 = FACE_OUTER_BOUND ( 'NONE', #57, .T. ) ;
#135 = CONICAL_SURFACE ( 'NONE', #215, 1.449999999999992628, 1.029744258676649649 ) ;
#136 = CIRCLE ( 'NONE', #220, 1.450000000000000178 ) ;
#137 = CARTESIAN_POINT ( 'NONE',  ( 1.152188841818234133E-13, -4.041334437186266989E-15, 33.00000000000000000 ) ) ;
#138 = ORIENTED_EDGE ( 'NONE', *, *, #173, .F. ) ;
#139 = CARTESIAN_POINT ( 'NONE',  ( 1.775737858763654274E-16, -1.449999999999998623, -1.775737858763666847E-16 ) ) ;
#140 = VERTEX_POINT ( 'NONE', #61 ) ;
#141 = ORIENTED_EDGE ( 'NONE', *, *, #196, .T. ) ;
#142 = DIRECTION ( 'NONE',  ( 1.000000000000000000, 0.0000000000000000000, 0.0000000000000000000 ) ) ;
#143 = EDGE_LOOP ( 'NONE', ( #141, #123, #316, #95 ) ) ;
#144 = EDGE_CURVE ( 'NONE', #115, #335, #266, .T. ) ;
#145 = CIRCLE ( 'NONE', #20, 1.149999999999999911 ) ;
#146 = VERTEX_POINT ( 'NONE', #42 ) ;
#147 = ORIENTED_EDGE ( 'NONE', *, *, #317, .T. ) ;
#148 = DIRECTION ( 'NONE',  ( -2.468850131082271655E-15, 0.7071067811865457964, -0.7071067811865492381 ) ) ;
#149 = EDGE_CURVE ( 'NONE', #26, #140, #53, .T. ) ;
#150 = FACE_OUTER_BOUND ( 'NONE', #90, .T. ) ;
#151 = CC_DESIGN_PERSON_AND_ORGANIZATION_ASSIGNMENT ( #291, #236, ( #277 ) ) ;
#152 = AXIS2_PLACEMENT_3D ( 'NONE', #69, #228, #325 ) ;
#153 = EDGE_CURVE ( 'NONE', #284, #140, #19, .T. ) ;
#154 = VECTOR ( 'NONE', #256, 1000.000000000000000 ) ;
#155 = DIRECTION ( 'NONE',  ( -3.491481338843133355E-15, 1.224646799147353454E-16, -1.000000000000000000 ) ) ;
#156 = DATE_TIME_ROLE ( 'classification_date' ) ;
#157 = CARTESIAN_POINT ( 'NONE',  ( 0.0000000000000000000, 0.0000000000000000000, 0.0000000000000000000 ) ) ;
#158 = CC_DESIGN_APPROVAL ( #218, ( #277 ) ) ;
#159 = ORIENTED_EDGE ( 'NONE', *, *, #149, .F. ) ;
#160 = DIRECTION ( 'NONE',  ( 3.491481338843133355E-15, -1.224646799147353454E-16, 1.000000000000000000 ) ) ;
#161 = VERTEX_POINT ( 'NONE', #63 ) ;
#162 = LOCAL_TIME ( 15, 22, 29.00000000000000000, #261 ) ;
#163 = FACE_OUTER_BOUND ( 'NONE', #56, .T. ) ;
#164 = ORIENTED_EDGE ( 'NONE', *, *, #80, .F. ) ;
#165 = DIRECTION ( 'NONE',  ( -3.491481338843133355E-15, 1.224646799147353454E-16, -1.000000000000000000 ) ) ;
#166 = VERTEX_POINT ( 'NONE', #157 ) ;
#167 = DIRECTION ( 'NONE',  ( -3.491481338843133355E-15, 1.224646799147353454E-16, -1.000000000000000000 ) ) ;
#168 = EDGE_LOOP ( 'NONE', ( #229, #189, #280, #283 ) ) ;
#169 =( LENGTH_UNIT ( ) NAMED_UNIT ( * ) SI_UNIT ( .MILLI., .METRE. ) );
#170 = ORIENTED_EDGE ( 'NONE', *, *, #149, .T. ) ;
#171 = CC_DESIGN_PERSON_AND_ORGANIZATION_ASSIGNMENT ( #292, #330, ( #76 ) ) ;
#172 = PLANE ( 'NONE',  #43 ) ;
#173 = EDGE_CURVE ( 'NONE', #166, #26, #216, .T. ) ;
#174 = AXIS2_PLACEMENT_3D ( 'NONE', #67, #165, #188 ) ;
#175 = LINE ( 'NONE', #234, #154 ) ;
#176 = VECTOR ( 'NONE', #148, 1000.000000000000000 ) ;
#177 = DIRECTION ( 'NONE',  ( 0.0000000000000000000, 0.0000000000000000000, 1.000000000000000000 ) ) ;
#178 = DIRECTION ( 'NONE',  ( -3.491481338843133355E-15, 1.224646799147353454E-16, -1.000000000000000000 ) ) ;
#179 = PERSON_AND_ORGANIZATION_ROLE ( 'creator' ) ;
#180 = DATE_AND_TIME ( #83, #162 ) ;
#181 = EDGE_CURVE ( 'NONE', #161, #146, #242, .T. ) ;
#182 = CALENDAR_DATE ( 2021, 2, 9 ) ;
#183 = DIRECTION ( 'NONE',  ( 5.312910191413091844E-31, 1.000000000000000000, 1.495451272393806938E-16 ) ) ;
#184 = DATE_AND_TIME ( #102, #300 ) ;
#185 = DIRECTION ( 'NONE',  ( 0.0000000000000000000, 1.000000000000000000, 0.0000000000000000000 ) ) ;
#186 = CIRCLE ( 'NONE', #225, 1.449999999999996847 ) ;
#187 = CALENDAR_DATE ( 2021, 2, 9 ) ;
#188 = DIRECTION ( 'NONE',  ( 0.0000000000000000000, 1.000000000000000000, 0.0000000000000000000 ) ) ;
#189 = ORIENTED_EDGE ( 'NONE', *, *, #211, .T. ) ;
#190 = DIRECTION ( 'NONE',  ( 4.275831445896959482E-31, 1.000000000000000000, 1.224646799147353454E-16 ) ) ;
#191 = CYLINDRICAL_SURFACE ( 'NONE', #59, 1.449999999999998623 ) ;
#192 = AXIS2_PLACEMENT_3D ( 'NONE', #194, #86, #198 ) ;
#193 =( GEOMETRIC_REPRESENTATION_CONTEXT ( 3 ) GLOBAL_UNCERTAINTY_ASSIGNED_CONTEXT ( ( #130 ) ) GLOBAL_UNIT_ASSIGNED_CONTEXT ( ( #169, #287, #31 ) ) REPRESENTATION_CONTEXT ( 'NONE', 'WORKASPACE' ) );
#194 = CARTESIAN_POINT ( 'NONE',  ( 3.041945775941684985E-15, -1.066970949047414896E-16, 0.8712478975899675682 ) ) ;
#195 = ORIENTED_EDGE ( 'NONE', *, *, #80, .T. ) ;
#196 = EDGE_CURVE ( 'NONE', #161, #335, #230, .T. ) ;
#197 = CARTESIAN_POINT ( 'NONE',  ( 1.637534745106771239E-13, -1.450000000000001066, 33.00000000000000000 ) ) ;
#198 = DIRECTION ( 'NONE',  ( 5.312910191413091844E-31, 1.000000000000000000, 1.495451272393806938E-16 ) ) ;
#199 = ORIENTED_EDGE ( 'NONE', *, *, #181, .T. ) ;
#200 = ADVANCED_FACE ( 'NONE', ( #65 ), #103, .T. ) ;
#201 = EDGE_LOOP ( 'NONE', ( #247, #311, #274, #159 ) ) ;
#202 = AXIS2_PLACEMENT_3D ( 'NONE', #328, #239, #183 ) ;
#203 = CARTESIAN_POINT ( 'NONE',  ( 1.637534745106770482E-13, -1.450000000000007505, 60.69999999999999574 ) ) ;
#204 = AXIS2_PLACEMENT_3D ( 'NONE', #58, #235, #37 ) ;
#205 = VERTEX_POINT ( 'NONE', #197 ) ;
#206 = CARTESIAN_POINT ( 'NONE',  ( 5.930798876475875389E-14, -1.450000000000001066, 33.00000000000000000 ) ) ;
#207 = ADVANCED_FACE ( 'NONE', ( #278 ), #85, .T. ) ;
#208 = CARTESIAN_POINT ( 'NONE',  ( 2.129803616694311221E-13, 1.149999999999992584, 61.00000000000000000 ) ) ;
#209 = APPROVAL_STATUS ( 'not_yet_approved' ) ;
#210 = CC_DESIGN_SECURITY_CLASSIFICATION ( #76, ( #38 ) ) ;
#211 = EDGE_CURVE ( 'NONE', #276, #26, #175, .T. ) ;
#212 = CARTESIAN_POINT ( 'NONE',  ( 6.199955596550568872E-31, 1.449999999999994627, 1.775737858763656000E-16 ) ) ;
#213 = CARTESIAN_POINT ( 'NONE',  ( 0.0000000000000000000, 0.0000000000000000000, 0.0000000000000000000 ) ) ;
#214 = DATE_AND_TIME ( #327, #240 ) ;
#215 = AXIS2_PLACEMENT_3D ( 'NONE', #221, #28, #305 ) ;
#216 = LINE ( 'NONE', #268, #33 ) ;
#217 = COORDINATED_UNIVERSAL_TIME_OFFSET ( 1, 0, .AHEAD. ) ;
#218 = APPROVAL ( #209, 'UNSPECIFIED' ) ;
#219 = PRODUCT_DEFINITION_SHAPE ( 'NONE', 'NONE',  #277 ) ;
#220 = AXIS2_PLACEMENT_3D ( 'NONE', #11, #289, #81 ) ;
#221 = CARTESIAN_POINT ( 'NONE',  ( 3.041945775941684985E-15, -1.066970949047414896E-16, 0.8712478975899675682 ) ) ;
#222 = FACE_OUTER_BOUND ( 'NONE', #281, .T. ) ;
#223 = EDGE_LOOP ( 'NONE', ( #255, #5 ) ) ;
#224 = ORIENTED_EDGE ( 'NONE', *, *, #60, .T. ) ;
#225 = AXIS2_PLACEMENT_3D ( 'NONE', #137, #246, #226 ) ;
#226 = DIRECTION ( 'NONE',  ( 0.0000000000000000000, 1.000000000000000000, 0.0000000000000000000 ) ) ;
#227 = APPLICATION_PROTOCOL_DEFINITION ( 'international standard', 'config_control_design', 1994, #9 ) ;
#228 = DIRECTION ( 'NONE',  ( -3.491481338843133355E-15, 1.224646799147353454E-16, -1.000000000000000000 ) ) ;
#229 = ORIENTED_EDGE ( 'NONE', *, *, #329, .T. ) ;
#230 = CIRCLE ( 'NONE', #116, 1.450000000000000178 ) ;
#231 = ORIENTED_EDGE ( 'NONE', *, *, #35, .F. ) ;
#232 = APPROVAL_PERSON_ORGANIZATION ( #129, #218, #101 ) ;
#233 = PERSON_AND_ORGANIZATION ( #122, #8 ) ;
#234 = CARTESIAN_POINT ( 'NONE',  ( 1.775737858763649590E-16, -1.449999999999994627, -1.775737858763661916E-16 ) ) ;
#235 = DIRECTION ( 'NONE',  ( -3.491481338843133355E-15, 1.224646799147353454E-16, -1.000000000000000000 ) ) ;
#236 = PERSON_AND_ORGANIZATION_ROLE ( 'creator' ) ;
#237 = DATE_AND_TIME ( #187, #30 ) ;
#238 = COORDINATED_UNIVERSAL_TIME_OFFSET ( 1, 0, .AHEAD. ) ;
#239 = DIRECTION ( 'NONE',  ( -3.491481338843133355E-15, 1.224646799147353454E-16, -1.000000000000000000 ) ) ;
#240 = LOCAL_TIME ( 15, 22, 29.00000000000000000, #320 ) ;
#241 = DATE_TIME_ROLE ( 'creation_date' ) ;
#242 = LINE ( 'NONE', #21, #304 ) ;
#243 = PERSON_AND_ORGANIZATION_ROLE ( 'design_supplier' ) ;
#244 = DIRECTION ( 'NONE',  ( -3.491481338843133355E-15, 1.224646799147353454E-16, -1.000000000000000000 ) ) ;
#245 = PLANE ( 'NONE',  #75 ) ;
#246 = DIRECTION ( 'NONE',  ( -3.491481338843133355E-15, 1.224646799147353454E-16, -1.000000000000000000 ) ) ;
#247 = ORIENTED_EDGE ( 'NONE', *, *, #211, .F. ) ;
#248 = DIRECTION ( 'NONE',  ( 0.0000000000000000000, 1.000000000000000000, 0.0000000000000000000 ) ) ;
#249 = ORIENTED_EDGE ( 'NONE', *, *, #259, .T. ) ;
#250 = CC_DESIGN_DATE_AND_TIME_ASSIGNMENT ( #214, #241, ( #277 ) ) ;
#251 = ORIENTED_EDGE ( 'NONE', *, *, #79, .F. ) ;
#252 = EDGE_LOOP ( 'NONE', ( #164, #22, #170 ) ) ;
#253 = LINE ( 'NONE', #208, #176 ) ;
#254 = DIRECTION ( 'NONE',  ( 4.275831445896958607E-31, 1.000000000000000000, 1.224646799147353454E-16 ) ) ;
#255 = ORIENTED_EDGE ( 'NONE', *, *, #329, .F. ) ;
#256 = DIRECTION ( 'NONE',  ( -3.491481338843133355E-15, 1.224646799147353454E-16, -1.000000000000000000 ) ) ;
#257 = EDGE_LOOP ( 'NONE', ( #119, #251 ) ) ;
#258 = CARTESIAN_POINT ( 'NONE',  ( 1.152188841818234133E-13, 1.449999999999992850, 33.00000000000000000 ) ) ;
#259 = EDGE_CURVE ( 'NONE', #335, #161, #136, .T. ) ;
#260 = CC_DESIGN_APPROVAL ( #2, ( #76 ) ) ;
#261 = COORDINATED_UNIVERSAL_TIME_OFFSET ( 1, 0, .AHEAD. ) ;
#262 = MANIFOLD_SOLID_BREP ( 'Corps-Déplacer/Copier1[1]', #13 ) ;
#263 = AXIS2_PLACEMENT_3D ( 'NONE', #27, #310, #333 ) ;
#264 = COORDINATED_UNIVERSAL_TIME_OFFSET ( 1, 0, .AHEAD. ) ;
#265 = CC_DESIGN_DATE_AND_TIME_ASSIGNMENT ( #237, #156, ( #76 ) ) ;
#266 = LINE ( 'NONE', #104, #64 ) ;
#267 = CIRCLE ( 'NONE', #152, 1.449999999999996847 ) ;
#268 = CARTESIAN_POINT ( 'NONE',  ( 3.041945775941684196E-15, -1.449999999999992628, 0.8712478975899673461 ) ) ;
#269 = AXIS2_PLACEMENT_3D ( 'NONE', #126, #177, #142 ) ;
#270 = PRODUCT_RELATED_PRODUCT_CATEGORY ( 'detail', '', ( #84 ) ) ;
#271 = APPROVAL_STATUS ( 'not_yet_approved' ) ;
#272 = DIRECTION ( 'NONE',  ( -3.491481338843133355E-15, 1.224646799147353454E-16, -1.000000000000000000 ) ) ;
#273 = LINE ( 'NONE', #88, #41 ) ;
#274 = ORIENTED_EDGE ( 'NONE', *, *, #153, .T. ) ;
#275 = CARTESIAN_POINT ( 'NONE',  ( 2.129803616694311221E-13, -7.470345474798856659E-15, 61.00000000000000000 ) ) ;
#276 = VERTEX_POINT ( 'NONE', #206 ) ;
#277 = PRODUCT_DEFINITION ( 'UNKNOWN', '', #38, #15 ) ;
#278 = FACE_OUTER_BOUND ( 'NONE', #201, .T. ) ;
#279 = FACE_OUTER_BOUND ( 'NONE', #223, .T. ) ;
#280 = ORIENTED_EDGE ( 'NONE', *, *, #60, .F. ) ;
#281 = EDGE_LOOP ( 'NONE', ( #147, #306 ) ) ;
#282 = ORIENTED_EDGE ( 'NONE', *, *, #144, .T. ) ;
#283 = ORIENTED_EDGE ( 'NONE', *, *, #153, .F. ) ;
#284 = VERTEX_POINT ( 'NONE', #258 ) ;
#285 = ADVANCED_BREP_SHAPE_REPRESENTATION ( '40608', ( #262, #46, #269 ), #193 ) ;
#286 = CARTESIAN_POINT ( 'NONE',  ( 3.041945775941684985E-15, -1.066970949047414896E-16, 0.8712478975899675682 ) ) ;
#287 =( NAMED_UNIT ( * ) PLANE_ANGLE_UNIT ( ) SI_UNIT ( $, .RADIAN. ) );
#288 = ADVANCED_FACE ( 'NONE', ( #150 ), #23, .T. ) ;
#289 = DIRECTION ( 'NONE',  ( -3.491481338843133355E-15, 1.224646799147353454E-16, -1.000000000000000000 ) ) ;
#290 = DIRECTION ( 'NONE',  ( -3.491481338843133355E-15, 1.224646799147353454E-16, -1.000000000000000000 ) ) ;
#291 = PERSON_AND_ORGANIZATION ( #122, #8 ) ;
#292 = PERSON_AND_ORGANIZATION ( #122, #8 ) ;
#293 = CLOSED_SHELL ( 'NONE', ( #200, #288, #40, #207, #89 ) ) ;
#294 = CARTESIAN_POINT ( 'NONE',  ( 2.119329172677781757E-13, -7.433606070824434221E-15, 60.69999999999999574 ) ) ;
#295 = PERSON_AND_ORGANIZATION ( #122, #8 ) ;
#296 = CARTESIAN_POINT ( 'NONE',  ( 2.126158435524937970E-13, -1.150000000000007461, 61.00000000000000000 ) ) ;
#297 = APPROVAL_DATE_TIME ( #184, #127 ) ;
#298 = EDGE_CURVE ( 'NONE', #97, #115, #145, .T. ) ;
#299 = CONICAL_SURFACE ( 'NONE', #7, 1.149999999999999911, 0.7853981633974457255 ) ;
#300 = LOCAL_TIME ( 15, 22, 29.00000000000000000, #238 ) ;
#301 = APPROVAL_STATUS ( 'not_yet_approved' ) ;
#302 = EDGE_CURVE ( 'NONE', #97, #161, #253, .T. ) ;
#303 = FACE_OUTER_BOUND ( 'NONE', #143, .T. ) ;
#304 = VECTOR ( 'NONE', #178, 1000.000000000000000 ) ;
#305 = DIRECTION ( 'NONE',  ( -5.312910191413091844E-31, -1.000000000000000000, -1.495451272393806938E-16 ) ) ;
#306 = ORIENTED_EDGE ( 'NONE', *, *, #100, .T. ) ;
#307 = FACE_OUTER_BOUND ( 'NONE', #52, .T. ) ;
#308 = ADVANCED_FACE ( 'NONE', ( #121 ), #172, .F. ) ;
#309 = ORIENTED_EDGE ( 'NONE', *, *, #302, .T. ) ;
#310 = DIRECTION ( 'NONE',  ( -3.491481338843133355E-15, 1.224646799147353454E-16, -1.000000000000000000 ) ) ;
#311 = ORIENTED_EDGE ( 'NONE', *, *, #82, .T. ) ;
#312 = DATE_AND_TIME ( #182, #36 ) ;
#313 = CARTESIAN_POINT ( 'NONE',  ( 0.0000000000000000000, 0.0000000000000000000, 0.0000000000000000000 ) ) ;
#314 = DIRECTION ( 'NONE',  ( -3.491481338843133355E-15, 1.224646799147353454E-16, -1.000000000000000000 ) ) ;
#315 = VECTOR ( 'NONE', #92, 1000.000000000000000 ) ;
#316 = ORIENTED_EDGE ( 'NONE', *, *, #317, .F. ) ;
#317 = EDGE_CURVE ( 'NONE', #146, #205, #128, .T. ) ;
#318 = ORIENTED_EDGE ( 'NONE', *, *, #302, .F. ) ;
#319 = CARTESIAN_POINT ( 'NONE',  ( 2.129803616694311221E-13, -7.470345474798856659E-15, 61.00000000000000000 ) ) ;
#320 = COORDINATED_UNIVERSAL_TIME_OFFSET ( 1, 0, .AHEAD. ) ;
#321 = DIRECTION ( 'NONE',  ( 0.0000000000000000000, 1.000000000000000000, 0.0000000000000000000 ) ) ;
#322 = AXIS2_PLACEMENT_3D ( 'NONE', #313, #167, #254 ) ;
#323 = DIRECTION ( 'NONE',  ( -5.312910191413091844E-31, -1.000000000000000000, -1.495451272393806938E-16 ) ) ;
#324 = CC_DESIGN_PERSON_AND_ORGANIZATION_ASSIGNMENT ( #132, #179, ( #38 ) ) ;
#325 = DIRECTION ( 'NONE',  ( 0.0000000000000000000, 1.000000000000000000, 0.0000000000000000000 ) ) ;
#326 = DIRECTION ( 'NONE',  ( -3.491481338843133355E-15, 1.224646799147353454E-16, -1.000000000000000000 ) ) ;
#327 = CALENDAR_DATE ( 2021, 2, 9 ) ;
#328 = CARTESIAN_POINT ( 'NONE',  ( 3.041945775941684985E-15, -1.066970949047414896E-16, 0.8712478975899675682 ) ) ;
#329 = EDGE_CURVE ( 'NONE', #284, #276, #66, .T. ) ;
#330 = PERSON_AND_ORGANIZATION_ROLE ( 'classification_officer' ) ;
#331 = AXIS2_PLACEMENT_3D ( 'NONE', #114, #1, #51 ) ;
#332 = AXIS2_PLACEMENT_3D ( 'NONE', #124, #34, #321 ) ;
#333 = DIRECTION ( 'NONE',  ( 0.0000000000000000000, 1.000000000000000000, 0.0000000000000000000 ) ) ;
#334 = CARTESIAN_POINT ( 'NONE',  ( 1.152188841818234133E-13, 1.087325842429838692E-32, 33.00000000000000000 ) ) ;
#335 = VERTEX_POINT ( 'NONE', #203 ) ;
#336 = ORIENTED_EDGE ( 'NONE', *, *, #196, .F. ) ;
#337 = AXIS2_PLACEMENT_3D ( 'NONE', #133, #244, #113 ) ;
ENDSEC;
END-ISO-10303-21;
