ISO-10303-21;
HEADER;
FILE_DESCRIPTION (( 'STEP AP203' ),
    '1' );
FILE_NAME ('40575.STEP',
    '2021-10-04T13:32:54',
    ( '' ),
    ( '' ),
    'SwSTEP 2.0',
    'SolidWorks 2019',
    '' );
FILE_SCHEMA (( 'CONFIG_CONTROL_DESIGN' ));
ENDSEC;

DATA;
#1 = PERSON_AND_ORGANIZATION_ROLE ( 'design_owner' ) ;
#2 = EDGE_LOOP ( 'NONE', ( #169 ) ) ;
#3 = ADVANCED_FACE ( 'NONE', ( #108, #143 ), #137, .T. ) ;
#4 = DATE_AND_TIME ( #177, #13 ) ;
#5 = APPLICATION_PROTOCOL_DEFINITION ( 'international standard', 'config_control_design', 1994, #36 ) ;
#6 = AXIS2_PLACEMENT_3D ( 'NONE', #178, #125, #159 ) ;
#7 = DIRECTION ( 'NONE',  ( -3.491481338843133355E-15, 1.224646799147353207E-16, -1.000000000000000000 ) ) ;
#8 = APPROVAL ( #64, 'UNSPECIFIED' ) ;
#9 = DIRECTION ( 'NONE',  ( -4.668921077302413169E-31, -1.000000000000000000, -1.314184451497587669E-16 ) ) ;
#10 = DATE_AND_TIME ( #113, #74 ) ;
#11 = DIRECTION ( 'NONE',  ( -3.491481338843133355E-15, 1.224646799147353207E-16, -1.000000000000000000 ) ) ;
#12 = CARTESIAN_POINT ( 'NONE',  ( 1.256933281983528008E-13, 1.649999999999991473, 36.00000000000000000 ) ) ;
#13 = LOCAL_TIME ( 15, 32, 54.00000000000000000, #195 ) ;
#14 = ADVANCED_BREP_SHAPE_REPRESENTATION ( '40575', ( #112, #47, #129 ), #92 ) ;
#15 = ORIENTED_EDGE ( 'NONE', *, *, #90, .T. ) ;
#16 = EDGE_LOOP ( 'NONE', ( #156 ) ) ;
#17 = AXIS2_PLACEMENT_3D ( 'NONE', #147, #86, #96 ) ;
#18 = FACE_OUTER_BOUND ( 'NONE', #121, .T. ) ;
#19 = PLANE ( 'NONE',  #155 ) ;
#20 = CC_DESIGN_DATE_AND_TIME_ASSIGNMENT ( #4, #50, ( #190 ) ) ;
#21 = CONICAL_SURFACE ( 'NONE', #30, 1.649999999999991696, 1.029744258676649649 ) ;
#22 = CC_DESIGN_SECURITY_CLASSIFICATION ( #190, ( #118 ) ) ;
#23 = PLANE ( 'NONE',  #98 ) ;
#24 = APPROVAL_ROLE ( '' ) ;
#25 = COORDINATED_UNIVERSAL_TIME_OFFSET ( 1, 0, .AHEAD. ) ;
#26 = FACE_OUTER_BOUND ( 'NONE', #48, .T. ) ;
#27 =( LENGTH_UNIT ( ) NAMED_UNIT ( * ) SI_UNIT ( .MILLI., .METRE. ) );
#28 = EDGE_CURVE ( 'NONE', #134, #134, #59, .T. ) ;
#29 = EDGE_LOOP ( 'NONE', ( #31 ) ) ;
#30 = AXIS2_PLACEMENT_3D ( 'NONE', #101, #185, #9 ) ;
#31 = ORIENTED_EDGE ( 'NONE', *, *, #102, .F. ) ;
#32 = EDGE_CURVE ( 'NONE', #55, #55, #103, .T. ) ;
#33 = EDGE_LOOP ( 'NONE', ( #73 ) ) ;
#34 = CLOSED_SHELL ( 'NONE', ( #67, #43, #56 ) ) ;
#35 = DIRECTION ( 'NONE',  ( -4.275831445896958607E-31, -1.000000000000000000, -1.224646799147353207E-16 ) ) ;
#36 = APPLICATION_CONTEXT ( 'configuration controlled 3d designs of mechanical parts and assemblies' ) ;
#37 = CARTESIAN_POINT ( 'NONE',  ( 1.256933281983528008E-13, -4.408728476930470856E-15, 36.00000000000000000 ) ) ;
#38 = CC_DESIGN_PERSON_AND_ORGANIZATION_ASSIGNMENT ( #51, #196, ( #200 ) ) ;
#39 = DIRECTION ( 'NONE',  ( 0.0000000000000000000, 0.0000000000000000000, 1.000000000000000000 ) ) ;
#40 = DIRECTION ( 'NONE',  ( 3.491481338843133355E-15, -1.224646799147353207E-16, 1.000000000000000000 ) ) ;
#41 = DIRECTION ( 'NONE',  ( 0.0000000000000000000, 1.000000000000000000, 0.0000000000000000000 ) ) ;
#42 = DIRECTION ( 'NONE',  ( -3.491481338843133355E-15, 1.224646799147353207E-16, -1.000000000000000000 ) ) ;
#43 = ADVANCED_FACE ( 'NONE', ( #18, #192 ), #107, .T. ) ;
#44 = CC_DESIGN_APPROVAL ( #8, ( #200 ) ) ;
#45 = APPROVAL ( #182, 'UNSPECIFIED' ) ;
#46 = CLOSED_SHELL ( 'NONE', ( #131, #3, #186, #170 ) ) ;
#47 = MANIFOLD_SOLID_BREP ( 'Corps-Déplacer/Copier1[2]', #34 ) ;
#48 = EDGE_LOOP ( 'NONE', ( #128 ) ) ;
#49 = VERTEX_POINT ( 'NONE', #12 ) ;
#50 = DATE_TIME_ROLE ( 'classification_date' ) ;
#51 = PERSON_AND_ORGANIZATION ( #75, #105 ) ;
#52 = CARTESIAN_POINT ( 'NONE',  ( 1.256933281983528008E-13, -4.408728476930470856E-15, 36.00000000000000000 ) ) ;
#53 = APPROVAL_ROLE ( '' ) ;
#54 = LOCAL_TIME ( 15, 32, 54.00000000000000000, #119 ) ;
#55 = VERTEX_POINT ( 'NONE', #151 ) ;
#56 = ADVANCED_FACE ( 'NONE', ( #158 ), #19, .T. ) ;
#57 = DATE_TIME_ROLE ( 'creation_date' ) ;
#58 = CC_DESIGN_PERSON_AND_ORGANIZATION_ASSIGNMENT ( #141, #148, ( #190 ) ) ;
#59 = CIRCLE ( 'NONE', #6, 1.249999999999999556 ) ;
#60 = APPROVAL_PERSON_ORGANIZATION ( #163, #8, #116 ) ;
#61 = ORIENTED_EDGE ( 'NONE', *, *, #126, .F. ) ;
#62 = COORDINATED_UNIVERSAL_TIME_OFFSET ( 1, 0, .AHEAD. ) ;
#63 = DIRECTION ( 'NONE',  ( 4.275831445896958607E-31, 1.000000000000000000, 1.224646799147353207E-16 ) ) ;
#64 = APPROVAL_STATUS ( 'not_yet_approved' ) ;
#65 = FACE_BOUND ( 'NONE', #88, .T. ) ;
#66 = DIRECTION ( 'NONE',  ( 0.0000000000000000000, 1.000000000000000000, 0.0000000000000000000 ) ) ;
#67 = ADVANCED_FACE ( 'NONE', ( #174 ), #21, .T. ) ;
#68 = APPLICATION_PROTOCOL_DEFINITION ( 'international standard', 'config_control_design', 1994, #203 ) ;
#69 = CONICAL_SURFACE ( 'NONE', #82, 1.249999999999999556, 0.7853981633974510546 ) ;
#70 = ORIENTED_EDGE ( 'NONE', *, *, #28, .T. ) ;
#71 = CC_DESIGN_PERSON_AND_ORGANIZATION_ASSIGNMENT ( #97, #80, ( #118 ) ) ;
#72 = CIRCLE ( 'NONE', #17, 1.649999999999999245 ) ;
#73 = ORIENTED_EDGE ( 'NONE', *, *, #32, .T. ) ;
#74 = LOCAL_TIME ( 15, 32, 54.00000000000000000, #132 ) ;
#75 = PERSON ( 'UNSPECIFIED', 'UNSPECIFIED', 'UNSPECIFIED', ('UNSPECIFIED'), ('UNSPECIFIED'), ('UNSPECIFIED') ) ;
#76 = DIRECTION ( 'NONE',  ( 4.275831445896958607E-31, 1.000000000000000000, 1.224646799147353207E-16 ) ) ;
#77 = CC_DESIGN_PERSON_AND_ORGANIZATION_ASSIGNMENT ( #127, #84, ( #118 ) ) ;
#78 = SECURITY_CLASSIFICATION_LEVEL ( 'unclassified' ) ;
#79 = PERSON_AND_ORGANIZATION ( #75, #105 ) ;
#80 = PERSON_AND_ORGANIZATION_ROLE ( 'creator' ) ;
#81 = DIRECTION ( 'NONE',  ( 1.000000000000000000, 0.0000000000000000000, 0.0000000000000000000 ) ) ;
#82 = AXIS2_PLACEMENT_3D ( 'NONE', #150, #11, #66 ) ;
#83 = CARTESIAN_POINT ( 'NONE',  ( 2.269462870248037060E-13, 9.373498641636485520E-33, 65.00000000000000000 ) ) ;
#84 = PERSON_AND_ORGANIZATION_ROLE ( 'design_supplier' ) ;
#85 = CALENDAR_DATE ( 2021, 4, 10 ) ;
#86 = DIRECTION ( 'NONE',  ( -3.491481338843133355E-15, 1.224646799147353207E-16, -1.000000000000000000 ) ) ;
#87 = AXIS2_PLACEMENT_3D ( 'NONE', #37, #94, #160 ) ;
#88 = EDGE_LOOP ( 'NONE', ( #70 ) ) ;
#89 = LOCAL_TIME ( 15, 32, 54.00000000000000000, #25 ) ;
#90 = EDGE_CURVE ( 'NONE', #146, #146, #72, .T. ) ;
#91 = UNCERTAINTY_MEASURE_WITH_UNIT (LENGTH_MEASURE( 1.000000000000000082E-05 ), #27, 'distance_accuracy_value', 'NONE');
#92 =( GEOMETRIC_REPRESENTATION_CONTEXT ( 3 ) GLOBAL_UNCERTAINTY_ASSIGNED_CONTEXT ( ( #91 ) ) GLOBAL_UNIT_ASSIGNED_CONTEXT ( ( #27, #114, #144 ) ) REPRESENTATION_CONTEXT ( 'NONE', 'WORKASPACE' ) );
#93 = CARTESIAN_POINT ( 'NONE',  ( 0.0000000000000000000, 0.0000000000000000000, 0.0000000000000000000 ) ) ;
#94 = DIRECTION ( 'NONE',  ( -3.491481338843133355E-15, 1.224646799147353207E-16, -1.000000000000000000 ) ) ;
#95 = PERSON_AND_ORGANIZATION ( #75, #105 ) ;
#96 = DIRECTION ( 'NONE',  ( 0.0000000000000000000, 1.000000000000000000, 0.0000000000000000000 ) ) ;
#97 = PERSON_AND_ORGANIZATION ( #75, #105 ) ;
#98 = AXIS2_PLACEMENT_3D ( 'NONE', #115, #40, #197 ) ;
#99 = FACE_OUTER_BOUND ( 'NONE', #135, .T. ) ;
#100 = MECHANICAL_CONTEXT ( 'NONE', #203, 'mechanical' ) ;
#101 = CARTESIAN_POINT ( 'NONE',  ( 3.461524503657780254E-15, -1.214139355812575554E-16, 0.9914200213954804664 ) ) ;
#102 = EDGE_CURVE ( 'NONE', #49, #49, #136, .T. ) ;
#103 = CIRCLE ( 'NONE', #87, 1.649999999999995914 ) ;
#104 = APPROVAL ( #133, 'UNSPECIFIED' ) ;
#105 = ORGANIZATION ( 'UNSPECIFIED', 'UNSPECIFIED', '' ) ;
#106 = CARTESIAN_POINT ( 'NONE',  ( 1.256933281983528008E-13, 1.237301820696022947E-32, 36.00000000000000000 ) ) ;
#107 = CYLINDRICAL_SURFACE ( 'NONE', #154, 1.649999999999993916 ) ;
#108 = FACE_OUTER_BOUND ( 'NONE', #2, .T. ) ;
#109 = APPROVAL_DATE_TIME ( #10, #45 ) ;
#110 = APPROVAL_PERSON_ORGANIZATION ( #165, #45, #24 ) ;
#111 = CARTESIAN_POINT ( 'NONE',  ( 2.255496944892664526E-13, 1.649999999999991473, 64.60000000000000853 ) ) ;
#112 = MANIFOLD_SOLID_BREP ( 'Corps-Déplacer/Copier1[1]', #46 ) ;
#113 = CALENDAR_DATE ( 2021, 4, 10 ) ;
#114 =( NAMED_UNIT ( * ) PLANE_ANGLE_UNIT ( ) SI_UNIT ( $, .RADIAN. ) );
#115 = CARTESIAN_POINT ( 'NONE',  ( 1.256933281983528008E-13, 1.237301820696022947E-32, 36.00000000000000000 ) ) ;
#116 = APPROVAL_ROLE ( '' ) ;
#117 = DIRECTION ( 'NONE',  ( -3.491481338843133355E-15, 1.224646799147353207E-16, -1.000000000000000000 ) ) ;
#118 = PRODUCT_DEFINITION_FORMATION_WITH_SPECIFIED_SOURCE ( 'ANY', '', #145, .NOT_KNOWN. ) ;
#119 = COORDINATED_UNIVERSAL_TIME_OFFSET ( 1, 0, .AHEAD. ) ;
#120 = CARTESIAN_POINT ( 'NONE',  ( 3.461524503657780254E-15, -1.214139355812575554E-16, 0.9914200213954804664 ) ) ;
#121 = EDGE_LOOP ( 'NONE', ( #61 ) ) ;
#122 = AXIS2_PLACEMENT_3D ( 'NONE', #83, #117, #164 ) ;
#123 = EDGE_LOOP ( 'NONE', ( #15 ) ) ;
#124 = AXIS2_PLACEMENT_3D ( 'NONE', #120, #181, #167 ) ;
#125 = DIRECTION ( 'NONE',  ( -3.491481338843133355E-15, 1.224646799147353207E-16, -1.000000000000000000 ) ) ;
#126 = EDGE_CURVE ( 'NONE', #198, #198, #172, .T. ) ;
#127 = PERSON_AND_ORGANIZATION ( #75, #105 ) ;
#128 = ORIENTED_EDGE ( 'NONE', *, *, #90, .F. ) ;
#129 = AXIS2_PLACEMENT_3D ( 'NONE', #161, #39, #81 ) ;
#130 = DATE_AND_TIME ( #201, #184 ) ;
#131 = ADVANCED_FACE ( 'NONE', ( #199 ), #23, .F. ) ;
#132 = COORDINATED_UNIVERSAL_TIME_OFFSET ( 1, 0, .AHEAD. ) ;
#133 = APPROVAL_STATUS ( 'not_yet_approved' ) ;
#134 = VERTEX_POINT ( 'NONE', #188 ) ;
#135 = EDGE_LOOP ( 'NONE', ( #153 ) ) ;
#136 = CIRCLE ( 'NONE', #176, 1.649999999999995914 ) ;
#137 = CYLINDRICAL_SURFACE ( 'NONE', #168, 1.649999999999997691 ) ;
#138 = DESIGN_CONTEXT ( 'detailed design', #36, 'design' ) ;
#139 = APPROVAL_PERSON_ORGANIZATION ( #79, #104, #53 ) ;
#140 = CC_DESIGN_DATE_AND_TIME_ASSIGNMENT ( #149, #57, ( #200 ) ) ;
#141 = PERSON_AND_ORGANIZATION ( #75, #105 ) ;
#142 = CARTESIAN_POINT ( 'NONE',  ( 0.0000000000000000000, 0.0000000000000000000, 0.0000000000000000000 ) ) ;
#143 = FACE_OUTER_BOUND ( 'NONE', #123, .T. ) ;
#144 =( NAMED_UNIT ( * ) SI_UNIT ( $, .STERADIAN. ) SOLID_ANGLE_UNIT ( ) );
#145 = PRODUCT ( '40575', '40575', '', ( #100 ) ) ;
#146 = VERTEX_POINT ( 'NONE', #111 ) ;
#147 = CARTESIAN_POINT ( 'NONE',  ( 2.255496944892664526E-13, -7.911218322491902246E-15, 64.60000000000000853 ) ) ;
#148 = PERSON_AND_ORGANIZATION_ROLE ( 'classification_officer' ) ;
#149 = DATE_AND_TIME ( #85, #89 ) ;
#150 = CARTESIAN_POINT ( 'NONE',  ( 2.269462870248037060E-13, -7.960204194457797252E-15, 65.00000000000000000 ) ) ;
#151 = CARTESIAN_POINT ( 'NONE',  ( 1.256933281983528008E-13, 1.649999999999991473, 36.00000000000000000 ) ) ;
#152 = EDGE_LOOP ( 'NONE', ( #171 ) ) ;
#153 = ORIENTED_EDGE ( 'NONE', *, *, #28, .F. ) ;
#154 = AXIS2_PLACEMENT_3D ( 'NONE', #142, #175, #63 ) ;
#155 = AXIS2_PLACEMENT_3D ( 'NONE', #106, #173, #35 ) ;
#156 = ORIENTED_EDGE ( 'NONE', *, *, #126, .T. ) ;
#157 = CC_DESIGN_APPROVAL ( #104, ( #118 ) ) ;
#158 = FACE_OUTER_BOUND ( 'NONE', #29, .T. ) ;
#159 = DIRECTION ( 'NONE',  ( 0.0000000000000000000, 1.000000000000000000, 0.0000000000000000000 ) ) ;
#160 = DIRECTION ( 'NONE',  ( 0.0000000000000000000, 1.000000000000000000, 0.0000000000000000000 ) ) ;
#161 = CARTESIAN_POINT ( 'NONE',  ( 0.0000000000000000000, 0.0000000000000000000, 0.0000000000000000000 ) ) ;
#162 = PRODUCT_DEFINITION_SHAPE ( 'NONE', 'NONE',  #200 ) ;
#163 = PERSON_AND_ORGANIZATION ( #75, #105 ) ;
#164 = DIRECTION ( 'NONE',  ( 4.275831445896958607E-31, 1.000000000000000000, 1.224646799147353207E-16 ) ) ;
#165 = PERSON_AND_ORGANIZATION ( #75, #105 ) ;
#166 = APPROVAL_DATE_TIME ( #189, #104 ) ;
#167 = DIRECTION ( 'NONE',  ( 4.668921077302413169E-31, 1.000000000000000000, 1.314184451497587669E-16 ) ) ;
#168 = AXIS2_PLACEMENT_3D ( 'NONE', #93, #7, #76 ) ;
#169 = ORIENTED_EDGE ( 'NONE', *, *, #32, .F. ) ;
#170 = ADVANCED_FACE ( 'NONE', ( #99 ), #202, .F. ) ;
#171 = ORIENTED_EDGE ( 'NONE', *, *, #102, .T. ) ;
#172 = CIRCLE ( 'NONE', #124, 1.649999999999991696 ) ;
#173 = DIRECTION ( 'NONE',  ( 3.491481338843133355E-15, -1.224646799147353207E-16, 1.000000000000000000 ) ) ;
#174 = FACE_OUTER_BOUND ( 'NONE', #16, .T. ) ;
#175 = DIRECTION ( 'NONE',  ( -3.491481338843133355E-15, 1.224646799147353207E-16, -1.000000000000000000 ) ) ;
#176 = AXIS2_PLACEMENT_3D ( 'NONE', #52, #42, #41 ) ;
#177 = CALENDAR_DATE ( 2021, 4, 10 ) ;
#178 = CARTESIAN_POINT ( 'NONE',  ( 2.269462870248037060E-13, -7.960204194457797252E-15, 65.00000000000000000 ) ) ;
#179 = SHAPE_DEFINITION_REPRESENTATION ( #162, #14 ) ;
#180 = CARTESIAN_POINT ( 'NONE',  ( 3.461524503657781043E-15, 1.649999999999991473, 0.9914200213954806884 ) ) ;
#181 = DIRECTION ( 'NONE',  ( -3.491481338843133355E-15, 1.224646799147353207E-16, -1.000000000000000000 ) ) ;
#182 = APPROVAL_STATUS ( 'not_yet_approved' ) ;
#183 = APPROVAL_DATE_TIME ( #130, #8 ) ;
#184 = LOCAL_TIME ( 15, 32, 54.00000000000000000, #62 ) ;
#185 = DIRECTION ( 'NONE',  ( 3.491481338843133355E-15, -1.224646799147353207E-16, 1.000000000000000000 ) ) ;
#186 = ADVANCED_FACE ( 'NONE', ( #26, #65 ), #69, .T. ) ;
#187 = CALENDAR_DATE ( 2021, 4, 10 ) ;
#188 = CARTESIAN_POINT ( 'NONE',  ( 2.269462870248037060E-13, 1.249999999999991562, 65.00000000000000000 ) ) ;
#189 = DATE_AND_TIME ( #187, #54 ) ;
#190 = SECURITY_CLASSIFICATION ( '', '', #78 ) ;
#191 = PRODUCT_RELATED_PRODUCT_CATEGORY ( 'detail', '', ( #145 ) ) ;
#192 = FACE_OUTER_BOUND ( 'NONE', #152, .T. ) ;
#193 = CC_DESIGN_PERSON_AND_ORGANIZATION_ASSIGNMENT ( #95, #1, ( #145 ) ) ;
#194 = CC_DESIGN_APPROVAL ( #45, ( #190 ) ) ;
#195 = COORDINATED_UNIVERSAL_TIME_OFFSET ( 1, 0, .AHEAD. ) ;
#196 = PERSON_AND_ORGANIZATION_ROLE ( 'creator' ) ;
#197 = DIRECTION ( 'NONE',  ( -4.275831445896958607E-31, -1.000000000000000000, -1.224646799147353207E-16 ) ) ;
#198 = VERTEX_POINT ( 'NONE', #180 ) ;
#199 = FACE_OUTER_BOUND ( 'NONE', #33, .T. ) ;
#200 = PRODUCT_DEFINITION ( 'UNKNOWN', '', #118, #138 ) ;
#201 = CALENDAR_DATE ( 2021, 4, 10 ) ;
#202 = PLANE ( 'NONE',  #122 ) ;
#203 = APPLICATION_CONTEXT ( 'configuration controlled 3d designs of mechanical parts and assemblies' ) ;
ENDSEC;
END-ISO-10303-21;
