ISO-10303-21;
HEADER;
FILE_DESCRIPTION (( 'STEP AP203' ),
    '1' );
FILE_NAME ('4030.step',
    '2021-12-06T12:59:39',
    ( '' ),
    ( '' ),
    'SwSTEP 2.0',
    'SolidWorks 2019',
    '' );
FILE_SCHEMA (( 'CONFIG_CONTROL_DESIGN' ));
ENDSEC;

DATA;
#1 = ORIENTED_EDGE ( 'NONE', *, *, #122, .F. ) ;
#2 = DIRECTION ( 'NONE',  ( -3.491481338843133355E-15, -7.550060366589244794E-17, -1.000000000000000000 ) ) ;
#3 = LOCAL_TIME ( 13, 59, 39.00000000000000000, #41 ) ;
#4 = DIRECTION ( 'NONE',  ( -2.801352646381434326E-31, 1.000000000000000000, -7.885106708985487801E-17 ) ) ;
#5 = PERSON_AND_ORGANIZATION ( #82, #14 ) ;
#6 = PRODUCT_DEFINITION ( 'UNKNOWN', '', #65, #137 ) ;
#7 = CALENDAR_DATE ( 2021, 6, 12 ) ;
#8 = CALENDAR_DATE ( 2021, 6, 12 ) ;
#9 = ADVANCED_FACE ( 'NONE', ( #34, #117 ), #48, .T. ) ;
#10 = ADVANCED_BREP_SHAPE_REPRESENTATION ( '4030', ( #114, #32 ), #97 ) ;
#11 = EDGE_LOOP ( 'NONE', ( #12 ) ) ;
#12 = ORIENTED_EDGE ( 'NONE', *, *, #122, .T. ) ;
#13 = CARTESIAN_POINT ( 'NONE',  ( 8.728703347107846010E-15, 1.887515091647313787E-16, 2.500000000000003553 ) ) ;
#14 = ORGANIZATION ( 'UNSPECIFIED', 'UNSPECIFIED', '' ) ;
#15 = APPLICATION_PROTOCOL_DEFINITION ( 'international standard', 'config_control_design', 1994, #94 ) ;
#16 = AXIS2_PLACEMENT_3D ( 'NONE', #136, #2, #24 ) ;
#17 = PERSON_AND_ORGANIZATION_ROLE ( 'creator' ) ;
#18 = CALENDAR_DATE ( 2021, 6, 12 ) ;
#19 = APPROVAL ( #91, 'UNSPECIFIED' ) ;
#20 = APPROVAL_PERSON_ORGANIZATION ( #64, #67, #141 ) ;
#21 = DIRECTION ( 'NONE',  ( -2.636089487708549981E-31, 1.000000000000000000, -7.550060366589244794E-17 ) ) ;
#22 = CC_DESIGN_PERSON_AND_ORGANIZATION_ASSIGNMENT ( #140, #150, ( #138 ) ) ;
#23 = ORIENTED_EDGE ( 'NONE', *, *, #124, .F. ) ;
#24 = DIRECTION ( 'NONE',  ( -2.636089487708549105E-31, 1.000000000000000000, -7.550060366589243561E-17 ) ) ;
#25 = UNCERTAINTY_MEASURE_WITH_UNIT (LENGTH_MEASURE( 1.000000000000000082E-05 ), #101, 'distance_accuracy_value', 'NONE');
#26 = DIRECTION ( 'NONE',  ( -2.636089487708549105E-31, 1.000000000000000000, -7.550060366589243561E-17 ) ) ;
#27 = LOCAL_TIME ( 13, 59, 39.00000000000000000, #79 ) ;
#28 = VERTEX_POINT ( 'NONE', #106 ) ;
#29 = APPROVAL_ROLE ( '' ) ;
#30 = COORDINATED_UNIVERSAL_TIME_OFFSET ( 1, 0, .AHEAD. ) ;
#31 = PERSON_AND_ORGANIZATION_ROLE ( 'design_supplier' ) ;
#32 = AXIS2_PLACEMENT_3D ( 'NONE', #62, #135, #86 ) ;
#33 = EDGE_LOOP ( 'NONE', ( #70 ) ) ;
#34 = FACE_BOUND ( 'NONE', #11, .T. ) ;
#35 = ORIENTED_EDGE ( 'NONE', *, *, #124, .T. ) ;
#36 = CARTESIAN_POINT ( 'NONE',  ( 8.728703347107839699E-15, 10.99999999999999822, 2.500000000000001776 ) ) ;
#37 = CC_DESIGN_APPROVAL ( #148, ( #6 ) ) ;
#38 = FACE_BOUND ( 'NONE', #118, .T. ) ;
#39 = CALENDAR_DATE ( 2021, 6, 12 ) ;
#40 = AXIS2_PLACEMENT_3D ( 'NONE', #45, #96, #155 ) ;
#41 = COORDINATED_UNIVERSAL_TIME_OFFSET ( 1, 0, .AHEAD. ) ;
#42 = ADVANCED_FACE ( 'NONE', ( #85, #47 ), #134, .F. ) ;
#43 = APPROVAL_ROLE ( '' ) ;
#44 = PERSON_AND_ORGANIZATION_ROLE ( 'design_owner' ) ;
#45 = CARTESIAN_POINT ( 'NONE',  ( 0.0000000000000000000, 0.0000000000000000000, 0.0000000000000000000 ) ) ;
#46 = AXIS2_PLACEMENT_3D ( 'NONE', #161, #50, #26 ) ;
#47 = FACE_OUTER_BOUND ( 'NONE', #98, .T. ) ;
#48 = PLANE ( 'NONE',  #130 ) ;
#49 = CIRCLE ( 'NONE', #92, 10.99999999999999822 ) ;
#50 = DIRECTION ( 'NONE',  ( -3.491481338843133355E-15, -7.550060366589244794E-17, -1.000000000000000000 ) ) ;
#51 = CC_DESIGN_PERSON_AND_ORGANIZATION_ASSIGNMENT ( #167, #44, ( #107 ) ) ;
#52 = CIRCLE ( 'NONE', #76, 40.00000000000000000 ) ;
#53 = COORDINATED_UNIVERSAL_TIME_OFFSET ( 1, 0, .AHEAD. ) ;
#54 = DATE_AND_TIME ( #8, #27 ) ;
#55 = FACE_OUTER_BOUND ( 'NONE', #33, .T. ) ;
#56 = CYLINDRICAL_SURFACE ( 'NONE', #40, 40.00000000000000000 ) ;
#57 = ORIENTED_EDGE ( 'NONE', *, *, #95, .F. ) ;
#58 = CC_DESIGN_PERSON_AND_ORGANIZATION_ASSIGNMENT ( #149, #139, ( #6 ) ) ;
#59 = FACE_OUTER_BOUND ( 'NONE', #129, .T. ) ;
#60 = LOCAL_TIME ( 13, 59, 39.00000000000000000, #30 ) ;
#61 = CARTESIAN_POINT ( 'NONE',  ( 8.728703347107834966E-15, 40.00000000000000000, 2.500000000000000444 ) ) ;
#62 = CARTESIAN_POINT ( 'NONE',  ( 0.0000000000000000000, 0.0000000000000000000, 0.0000000000000000000 ) ) ;
#63 = SECURITY_CLASSIFICATION_LEVEL ( 'unclassified' ) ;
#64 = PERSON_AND_ORGANIZATION ( #82, #14 ) ;
#65 = PRODUCT_DEFINITION_FORMATION_WITH_SPECIFIED_SOURCE ( 'ANY', '', #107, .NOT_KNOWN. ) ;
#66 = APPLICATION_PROTOCOL_DEFINITION ( 'international standard', 'config_control_design', 1994, #104 ) ;
#67 = APPROVAL ( #165, 'UNSPECIFIED' ) ;
#68 = VERTEX_POINT ( 'NONE', #160 ) ;
#69 = CC_DESIGN_APPROVAL ( #19, ( #65 ) ) ;
#70 = ORIENTED_EDGE ( 'NONE', *, *, #168, .T. ) ;
#71 = DIRECTION ( 'NONE',  ( -3.491481338843133355E-15, -7.550060366589244794E-17, -1.000000000000000000 ) ) ;
#72 = PRODUCT_DEFINITION_SHAPE ( 'NONE', 'NONE',  #6 ) ;
#73 = DIRECTION ( 'NONE',  ( -2.636089487708549543E-31, 1.000000000000000000, -7.550060366589244794E-17 ) ) ;
#74 = CIRCLE ( 'NONE', #46, 11.00000000000000000 ) ;
#75 = CC_DESIGN_DATE_AND_TIME_ASSIGNMENT ( #93, #80, ( #138 ) ) ;
#76 = AXIS2_PLACEMENT_3D ( 'NONE', #13, #110, #154 ) ;
#77 = APPROVAL_DATE_TIME ( #151, #19 ) ;
#78 = PERSON_AND_ORGANIZATION ( #82, #14 ) ;
#79 = COORDINATED_UNIVERSAL_TIME_OFFSET ( 1, 0, .AHEAD. ) ;
#80 = DATE_TIME_ROLE ( 'classification_date' ) ;
#81 = CARTESIAN_POINT ( 'NONE',  ( 8.728703347107838121E-15, 1.887515091647312061E-16, 2.500000000000001332 ) ) ;
#82 = PERSON ( 'UNSPECIFIED', 'UNSPECIFIED', 'UNSPECIFIED', ('UNSPECIFIED'), ('UNSPECIFIED'), ('UNSPECIFIED') ) ;
#83 = PRODUCT_RELATED_PRODUCT_CATEGORY ( 'detail', '', ( #107 ) ) ;
#84 = CIRCLE ( 'NONE', #159, 40.00000000000000000 ) ;
#85 = FACE_OUTER_BOUND ( 'NONE', #144, .T. ) ;
#86 = DIRECTION ( 'NONE',  ( 1.000000000000000000, 0.0000000000000000000, 0.0000000000000000000 ) ) ;
#87 = CARTESIAN_POINT ( 'NONE',  ( 3.822329757177396465E-30, 11.00000000000000000, 1.094758753155440557E-15 ) ) ;
#88 = CALENDAR_DATE ( 2021, 6, 12 ) ;
#89 = LOCAL_TIME ( 13, 59, 39.00000000000000000, #111 ) ;
#90 = PERSON_AND_ORGANIZATION ( #82, #14 ) ;
#91 = APPROVAL_STATUS ( 'not_yet_approved' ) ;
#92 = AXIS2_PLACEMENT_3D ( 'NONE', #81, #119, #4 ) ;
#93 = DATE_AND_TIME ( #18, #89 ) ;
#94 = APPLICATION_CONTEXT ( 'configuration controlled 3d designs of mechanical parts and assemblies' ) ;
#95 = EDGE_CURVE ( 'NONE', #68, #68, #84, .T. ) ;
#96 = DIRECTION ( 'NONE',  ( -3.491481338843133355E-15, -7.550060366589244794E-17, -1.000000000000000000 ) ) ;
#97 =( GEOMETRIC_REPRESENTATION_CONTEXT ( 3 ) GLOBAL_UNCERTAINTY_ASSIGNED_CONTEXT ( ( #25 ) ) GLOBAL_UNIT_ASSIGNED_CONTEXT ( ( #101, #121, #120 ) ) REPRESENTATION_CONTEXT ( 'NONE', 'WORKASPACE' ) );
#98 = EDGE_LOOP ( 'NONE', ( #1 ) ) ;
#99 = CC_DESIGN_DATE_AND_TIME_ASSIGNMENT ( #54, #109, ( #6 ) ) ;
#100 = DIRECTION ( 'NONE',  ( 3.491481338843133355E-15, 7.550060366589244794E-17, 1.000000000000000000 ) ) ;
#101 =( LENGTH_UNIT ( ) NAMED_UNIT ( * ) SI_UNIT ( .MILLI., .METRE. ) );
#102 = APPROVAL_PERSON_ORGANIZATION ( #78, #148, #43 ) ;
#103 = CARTESIAN_POINT ( 'NONE',  ( 0.0000000000000000000, 11.00000000000000000, 0.0000000000000000000 ) ) ;
#104 = APPLICATION_CONTEXT ( 'configuration controlled 3d designs of mechanical parts and assemblies' ) ;
#105 = PLANE ( 'NONE',  #152 ) ;
#106 = CARTESIAN_POINT ( 'NONE',  ( 8.728703347107834966E-15, 10.99999999999999822, 2.500000000000000444 ) ) ;
#107 = PRODUCT ( '4030', '4030', '', ( #125 ) ) ;
#108 = PERSON_AND_ORGANIZATION ( #82, #14 ) ;
#109 = DATE_TIME_ROLE ( 'creation_date' ) ;
#110 = DIRECTION ( 'NONE',  ( -3.491481338843133355E-15, -7.550060366589244794E-17, -1.000000000000000000 ) ) ;
#111 = COORDINATED_UNIVERSAL_TIME_OFFSET ( 1, 0, .AHEAD. ) ;
#112 = DATE_AND_TIME ( #7, #3 ) ;
#113 = ADVANCED_FACE ( 'NONE', ( #55, #115 ), #56, .T. ) ;
#114 = MANIFOLD_SOLID_BREP ( 'Corps-Déplacer/Copier1', #142 ) ;
#115 = FACE_OUTER_BOUND ( 'NONE', #132, .T. ) ;
#116 = DIRECTION ( 'NONE',  ( 2.636089487708549543E-31, -1.000000000000000000, 7.550060366589244794E-17 ) ) ;
#117 = FACE_OUTER_BOUND ( 'NONE', #128, .T. ) ;
#118 = EDGE_LOOP ( 'NONE', ( #23 ) ) ;
#119 = DIRECTION ( 'NONE',  ( -3.491481338843133355E-15, -7.550060366589244794E-17, -1.000000000000000000 ) ) ;
#120 =( NAMED_UNIT ( * ) SI_UNIT ( $, .STERADIAN. ) SOLID_ANGLE_UNIT ( ) );
#121 =( NAMED_UNIT ( * ) PLANE_ANGLE_UNIT ( ) SI_UNIT ( $, .RADIAN. ) );
#122 = EDGE_CURVE ( 'NONE', #28, #28, #49, .T. ) ;
#123 = APPROVAL_DATE_TIME ( #164, #67 ) ;
#124 = EDGE_CURVE ( 'NONE', #133, #133, #74, .T. ) ;
#125 = MECHANICAL_CONTEXT ( 'NONE', #94, 'mechanical' ) ;
#126 = SHAPE_DEFINITION_REPRESENTATION ( #72, #10 ) ;
#127 = CC_DESIGN_PERSON_AND_ORGANIZATION_ASSIGNMENT ( #90, #31, ( #65 ) ) ;
#128 = EDGE_LOOP ( 'NONE', ( #157 ) ) ;
#129 = EDGE_LOOP ( 'NONE', ( #158 ) ) ;
#130 = AXIS2_PLACEMENT_3D ( 'NONE', #36, #100, #116 ) ;
#131 = CC_DESIGN_APPROVAL ( #67, ( #138 ) ) ;
#132 = EDGE_LOOP ( 'NONE', ( #57 ) ) ;
#133 = VERTEX_POINT ( 'NONE', #103 ) ;
#134 = CYLINDRICAL_SURFACE ( 'NONE', #16, 11.00000000000000000 ) ;
#135 = DIRECTION ( 'NONE',  ( 0.0000000000000000000, 0.0000000000000000000, 1.000000000000000000 ) ) ;
#136 = CARTESIAN_POINT ( 'NONE',  ( 0.0000000000000000000, 0.0000000000000000000, 0.0000000000000000000 ) ) ;
#137 = DESIGN_CONTEXT ( 'detailed design', #104, 'design' ) ;
#138 = SECURITY_CLASSIFICATION ( '', '', #63 ) ;
#139 = PERSON_AND_ORGANIZATION_ROLE ( 'creator' ) ;
#140 = PERSON_AND_ORGANIZATION ( #82, #14 ) ;
#141 = APPROVAL_ROLE ( '' ) ;
#142 = CLOSED_SHELL ( 'NONE', ( #153, #113, #9, #42 ) ) ;
#143 = APPROVAL_PERSON_ORGANIZATION ( #5, #19, #29 ) ;
#144 = EDGE_LOOP ( 'NONE', ( #35 ) ) ;
#145 = VERTEX_POINT ( 'NONE', #61 ) ;
#146 = CARTESIAN_POINT ( 'NONE',  ( 1.054435795083419782E-29, 2.280136461565668894E-31, 3.020024146635698115E-15 ) ) ;
#147 = DIRECTION ( 'NONE',  ( -3.491481338843133355E-15, -7.550060366589244794E-17, -1.000000000000000000 ) ) ;
#148 = APPROVAL ( #163, 'UNSPECIFIED' ) ;
#149 = PERSON_AND_ORGANIZATION ( #82, #14 ) ;
#150 = PERSON_AND_ORGANIZATION_ROLE ( 'classification_officer' ) ;
#151 = DATE_AND_TIME ( #88, #169 ) ;
#152 = AXIS2_PLACEMENT_3D ( 'NONE', #87, #147, #73 ) ;
#153 = ADVANCED_FACE ( 'NONE', ( #59, #38 ), #105, .T. ) ;
#154 = DIRECTION ( 'NONE',  ( -2.696301922142130194E-31, 1.000000000000000000, -7.589415207398531038E-17 ) ) ;
#155 = DIRECTION ( 'NONE',  ( -2.636089487708549981E-31, 1.000000000000000000, -7.550060366589244794E-17 ) ) ;
#156 = CC_DESIGN_SECURITY_CLASSIFICATION ( #138, ( #65 ) ) ;
#157 = ORIENTED_EDGE ( 'NONE', *, *, #168, .F. ) ;
#158 = ORIENTED_EDGE ( 'NONE', *, *, #95, .T. ) ;
#159 = AXIS2_PLACEMENT_3D ( 'NONE', #146, #71, #21 ) ;
#160 = CARTESIAN_POINT ( 'NONE',  ( -1.368455531567204171E-45, 40.00000000000000000, 0.0000000000000000000 ) ) ;
#161 = CARTESIAN_POINT ( 'NONE',  ( 2.899698436479404191E-30, 6.270375269305588144E-32, 8.305066403248168040E-16 ) ) ;
#162 = CC_DESIGN_PERSON_AND_ORGANIZATION_ASSIGNMENT ( #108, #17, ( #65 ) ) ;
#163 = APPROVAL_STATUS ( 'not_yet_approved' ) ;
#164 = DATE_AND_TIME ( #39, #60 ) ;
#165 = APPROVAL_STATUS ( 'not_yet_approved' ) ;
#166 = APPROVAL_DATE_TIME ( #112, #148 ) ;
#167 = PERSON_AND_ORGANIZATION ( #82, #14 ) ;
#168 = EDGE_CURVE ( 'NONE', #145, #145, #52, .T. ) ;
#169 = LOCAL_TIME ( 13, 59, 39.00000000000000000, #53 ) ;
ENDSEC;
END-ISO-10303-21;
