ISO-10303-21;
HEADER;
FILE_DESCRIPTION (( 'STEP AP203' ),
    '1' );
FILE_NAME ('40275.step',
    '2021-10-06T08:24:49',
    ( '' ),
    ( '' ),
    'SwSTEP 2.0',
    'SolidWorks 2019',
    '' );
FILE_SCHEMA (( 'CONFIG_CONTROL_DESIGN' ));
ENDSEC;

DATA;
#1 = DATE_AND_TIME ( #76, #22 ) ;
#2 = EDGE_CURVE ( 'NONE', #152, #152, #203, .T. ) ;
#3 = COORDINATED_UNIVERSAL_TIME_OFFSET ( 1, 0, .AHEAD. ) ;
#4 = CARTESIAN_POINT ( 'NONE',  ( 1.007903845425821562E-15, 0.4999999999999953371, 0.2886751345948135872 ) ) ;
#5 = SECURITY_CLASSIFICATION_LEVEL ( 'unclassified' ) ;
#6 = CIRCLE ( 'NONE', #116, 0.2999999999999989342 ) ;
#7 = APPROVAL_DATE_TIME ( #67, #20 ) ;
#8 = EDGE_LOOP ( 'NONE', ( #68 ) ) ;
#9 = FACE_OUTER_BOUND ( 'NONE', #120, .T. ) ;
#10 = DESIGN_CONTEXT ( 'detailed design', #182, 'design' ) ;
#11 = CARTESIAN_POINT ( 'NONE',  ( 2.444036937190193349E-14, 0.4999999999999953371, 7.000000000000000000 ) ) ;
#12 = DIRECTION ( 'NONE',  ( -3.491481338843133355E-15, 1.224646799147353207E-16, -1.000000000000000000 ) ) ;
#13 = PRODUCT_DEFINITION_SHAPE ( 'NONE', 'NONE',  #191 ) ;
#14 = AXIS2_PLACEMENT_3D ( 'NONE', #43, #85, #105 ) ;
#15 = CARTESIAN_POINT ( 'NONE',  ( 1.047444401652940007E-13, 2.249639673992723463E-33, 30.00000000000000000 ) ) ;
#16 = VERTEX_POINT ( 'NONE', #75 ) ;
#17 = DIRECTION ( 'NONE',  ( 0.0000000000000000000, 0.0000000000000000000, 1.000000000000000000 ) ) ;
#18 = PERSON_AND_ORGANIZATION ( #150, #195 ) ;
#19 = APPROVAL_PERSON_ORGANIZATION ( #142, #117, #35 ) ;
#20 = APPROVAL ( #160, 'UNSPECIFIED' ) ;
#21 = COORDINATED_UNIVERSAL_TIME_OFFSET ( 1, 0, .AHEAD. ) ;
#22 = LOCAL_TIME ( 10, 24, 49.00000000000000000, #65 ) ;
#23 = EDGE_LOOP ( 'NONE', ( #25 ) ) ;
#24 = CC_DESIGN_DATE_AND_TIME_ASSIGNMENT ( #33, #93, ( #130 ) ) ;
#25 = ORIENTED_EDGE ( 'NONE', *, *, #53, .F. ) ;
#26 = DIRECTION ( 'NONE',  ( 0.0000000000000000000, 1.000000000000000000, 0.0000000000000000000 ) ) ;
#27 = PLANE ( 'NONE',  #125 ) ;
#28 = DIRECTION ( 'NONE',  ( -3.491481338843133355E-15, 1.224646799147353207E-16, -1.000000000000000000 ) ) ;
#29 = DIRECTION ( 'NONE',  ( -3.491481338843133355E-15, 1.224646799147353207E-16, -1.000000000000000000 ) ) ;
#30 = DIRECTION ( 'NONE',  ( 3.491481338843133355E-15, -1.224646799147353207E-16, 1.000000000000000000 ) ) ;
#31 = CALENDAR_DATE ( 2021, 6, 10 ) ;
#32 = PERSON_AND_ORGANIZATION ( #150, #195 ) ;
#33 = DATE_AND_TIME ( #62, #124 ) ;
#34 = DATE_AND_TIME ( #64, #114 ) ;
#35 = APPROVAL_ROLE ( '' ) ;
#36 = AXIS2_PLACEMENT_3D ( 'NONE', #59, #166, #118 ) ;
#37 = ORIENTED_EDGE ( 'NONE', *, *, #177, .F. ) ;
#38 = APPROVAL ( #91, 'UNSPECIFIED' ) ;
#39 =( GEOMETRIC_REPRESENTATION_CONTEXT ( 3 ) GLOBAL_UNCERTAINTY_ASSIGNED_CONTEXT ( ( #155 ) ) GLOBAL_UNIT_ASSIGNED_CONTEXT ( ( #81, #161, #95 ) ) REPRESENTATION_CONTEXT ( 'NONE', 'WORKASPACE' ) );
#40 = CARTESIAN_POINT ( 'NONE',  ( 1.007903845425821365E-15, -3.535250795749698139E-17, 0.2886751345948135317 ) ) ;
#41 = FACE_OUTER_BOUND ( 'NONE', #80, .T. ) ;
#42 = FACE_OUTER_BOUND ( 'NONE', #149, .T. ) ;
#43 = CARTESIAN_POINT ( 'NONE',  ( 0.0000000000000000000, 0.0000000000000000000, 0.0000000000000000000 ) ) ;
#44 = CC_DESIGN_APPROVAL ( #20, ( #130 ) ) ;
#45 = PLANE ( 'NONE',  #36 ) ;
#46 = ADVANCED_FACE ( 'NONE', ( #167, #154 ), #192, .T. ) ;
#47 = COORDINATED_UNIVERSAL_TIME_OFFSET ( 1, 0, .AHEAD. ) ;
#48 = APPROVAL_DATE_TIME ( #128, #117 ) ;
#49 = AXIS2_PLACEMENT_3D ( 'NONE', #186, #201, #196 ) ;
#50 = APPROVAL_DATE_TIME ( #1, #38 ) ;
#51 = MANIFOLD_SOLID_BREP ( 'Corps-Déplacer/Copier1[2]', #86 ) ;
#52 = ORIENTED_EDGE ( 'NONE', *, *, #99, .T. ) ;
#53 = EDGE_CURVE ( 'NONE', #16, #16, #6, .T. ) ;
#54 = ADVANCED_FACE ( 'NONE', ( #187 ), #168, .F. ) ;
#55 = LOCAL_TIME ( 10, 24, 49.00000000000000000, #172 ) ;
#56 = DIRECTION ( 'NONE',  ( -3.491481338843133355E-15, 1.224646799147353207E-16, -1.000000000000000000 ) ) ;
#57 = CARTESIAN_POINT ( 'NONE',  ( 1.040461438975253866E-13, 0.4999999999999952260, 29.80000000000000426 ) ) ;
#58 = CC_DESIGN_PERSON_AND_ORGANIZATION_ASSIGNMENT ( #126, #189, ( #122 ) ) ;
#59 = CARTESIAN_POINT ( 'NONE',  ( 2.444036937190193349E-14, 3.749399456654602966E-33, 7.000000000000000000 ) ) ;
#60 = CARTESIAN_POINT ( 'NONE',  ( 1.040461438975253866E-13, -3.649447461459112464E-15, 29.80000000000000426 ) ) ;
#61 = CARTESIAN_POINT ( 'NONE',  ( 1.007903845425821365E-15, -3.535250795749698139E-17, 0.2886751345948135317 ) ) ;
#62 = CALENDAR_DATE ( 2021, 6, 10 ) ;
#63 = CARTESIAN_POINT ( 'NONE',  ( 0.0000000000000000000, 0.0000000000000000000, 0.0000000000000000000 ) ) ;
#64 = CALENDAR_DATE ( 2021, 6, 10 ) ;
#65 = COORDINATED_UNIVERSAL_TIME_OFFSET ( 1, 0, .AHEAD. ) ;
#66 = ORIENTED_EDGE ( 'NONE', *, *, #53, .T. ) ;
#67 = DATE_AND_TIME ( #165, #92 ) ;
#68 = ORIENTED_EDGE ( 'NONE', *, *, #177, .T. ) ;
#69 = AXIS2_PLACEMENT_3D ( 'NONE', #184, #56, #103 ) ;
#70 = FACE_OUTER_BOUND ( 'NONE', #143, .T. ) ;
#71 = VERTEX_POINT ( 'NONE', #132 ) ;
#72 = CC_DESIGN_PERSON_AND_ORGANIZATION_ASSIGNMENT ( #202, #174, ( #130 ) ) ;
#73 = DIRECTION ( 'NONE',  ( 4.275831445896957731E-31, 1.000000000000000000, 1.224646799147353207E-16 ) ) ;
#74 = DIRECTION ( 'NONE',  ( -3.851859888774507614E-31, -1.000000000000000000, -1.084202172485514541E-16 ) ) ;
#75 = CARTESIAN_POINT ( 'NONE',  ( 1.047444401652940007E-13, 0.2999999999999952704, 30.00000000000000000 ) ) ;
#76 = CALENDAR_DATE ( 2021, 6, 10 ) ;
#77 = AXIS2_PLACEMENT_3D ( 'NONE', #61, #30, #74 ) ;
#78 = EDGE_LOOP ( 'NONE', ( #100 ) ) ;
#79 = CC_DESIGN_PERSON_AND_ORGANIZATION_ASSIGNMENT ( #173, #178, ( #171 ) ) ;
#80 = EDGE_LOOP ( 'NONE', ( #151 ) ) ;
#81 =( LENGTH_UNIT ( ) NAMED_UNIT ( * ) SI_UNIT ( .MILLI., .METRE. ) );
#82 = AXIS2_PLACEMENT_3D ( 'NONE', #40, #101, #157 ) ;
#83 = CIRCLE ( 'NONE', #194, 0.4999999999999989453 ) ;
#84 = EDGE_LOOP ( 'NONE', ( #179 ) ) ;
#85 = DIRECTION ( 'NONE',  ( -3.491481338843133355E-15, 1.224646799147353207E-16, -1.000000000000000000 ) ) ;
#86 = CLOSED_SHELL ( 'NONE', ( #134, #94, #115 ) ) ;
#87 = CARTESIAN_POINT ( 'NONE',  ( 1.047444401652940007E-13, -3.673940397442059178E-15, 30.00000000000000000 ) ) ;
#88 = FACE_OUTER_BOUND ( 'NONE', #135, .T. ) ;
#89 = CC_DESIGN_DATE_AND_TIME_ASSIGNMENT ( #34, #190, ( #191 ) ) ;
#90 = DIRECTION ( 'NONE',  ( 0.0000000000000000000, 1.000000000000000000, 0.0000000000000000000 ) ) ;
#91 = APPROVAL_STATUS ( 'not_yet_approved' ) ;
#92 = LOCAL_TIME ( 10, 24, 49.00000000000000000, #3 ) ;
#93 = DATE_TIME_ROLE ( 'classification_date' ) ;
#94 = ADVANCED_FACE ( 'NONE', ( #9, #70 ), #136, .T. ) ;
#95 =( NAMED_UNIT ( * ) SI_UNIT ( $, .STERADIAN. ) SOLID_ANGLE_UNIT ( ) );
#96 = DIRECTION ( 'NONE',  ( 1.000000000000000000, 0.0000000000000000000, 0.0000000000000000000 ) ) ;
#97 = ADVANCED_FACE ( 'NONE', ( #41, #88 ), #198, .T. ) ;
#98 = CC_DESIGN_APPROVAL ( #38, ( #171 ) ) ;
#99 = EDGE_CURVE ( 'NONE', #71, #71, #144, .T. ) ;
#100 = ORIENTED_EDGE ( 'NONE', *, *, #141, .F. ) ;
#101 = DIRECTION ( 'NONE',  ( -3.491481338843133355E-15, 1.224646799147353207E-16, -1.000000000000000000 ) ) ;
#102 = CIRCLE ( 'NONE', #82, 0.4999999999999953371 ) ;
#103 = DIRECTION ( 'NONE',  ( 0.0000000000000000000, 1.000000000000000000, 0.0000000000000000000 ) ) ;
#104 = CARTESIAN_POINT ( 'NONE',  ( 2.444036937190193349E-14, 3.749399456654602966E-33, 7.000000000000000000 ) ) ;
#105 = DIRECTION ( 'NONE',  ( 4.275831445896958607E-31, 1.000000000000000000, 1.224646799147353207E-16 ) ) ;
#106 = APPROVAL_PERSON_ORGANIZATION ( #18, #38, #158 ) ;
#107 = APPLICATION_PROTOCOL_DEFINITION ( 'international standard', 'config_control_design', 1994, #110 ) ;
#108 = VERTEX_POINT ( 'NONE', #4 ) ;
#109 = ADVANCED_FACE ( 'NONE', ( #170 ), #27, .F. ) ;
#110 = APPLICATION_CONTEXT ( 'configuration controlled 3d designs of mechanical parts and assemblies' ) ;
#111 = AXIS2_PLACEMENT_3D ( 'NONE', #87, #29, #169 ) ;
#112 = PERSON_AND_ORGANIZATION ( #150, #195 ) ;
#113 = EDGE_LOOP ( 'NONE', ( #66 ) ) ;
#114 = LOCAL_TIME ( 10, 24, 49.00000000000000000, #21 ) ;
#115 = ADVANCED_FACE ( 'NONE', ( #42 ), #45, .T. ) ;
#116 = AXIS2_PLACEMENT_3D ( 'NONE', #123, #133, #26 ) ;
#117 = APPROVAL ( #162, 'UNSPECIFIED' ) ;
#118 = DIRECTION ( 'NONE',  ( -4.275831445896958607E-31, -1.000000000000000000, -1.224646799147353207E-16 ) ) ;
#119 = MANIFOLD_SOLID_BREP ( 'Corps-Déplacer/Copier1[1]', #180 ) ;
#120 = EDGE_LOOP ( 'NONE', ( #37 ) ) ;
#121 = DIRECTION ( 'NONE',  ( -3.491481338843133355E-15, 1.224646799147353207E-16, -1.000000000000000000 ) ) ;
#122 = PRODUCT ( '40275', '40275', '', ( #139 ) ) ;
#123 = CARTESIAN_POINT ( 'NONE',  ( 1.047444401652940007E-13, -3.673940397442059178E-15, 30.00000000000000000 ) ) ;
#124 = LOCAL_TIME ( 10, 24, 49.00000000000000000, #47 ) ;
#125 = AXIS2_PLACEMENT_3D ( 'NONE', #104, #185, #153 ) ;
#126 = PERSON_AND_ORGANIZATION ( #150, #195 ) ;
#127 = PERSON_AND_ORGANIZATION_ROLE ( 'creator' ) ;
#128 = DATE_AND_TIME ( #31, #55 ) ;
#129 = AXIS2_PLACEMENT_3D ( 'NONE', #15, #12, #199 ) ;
#130 = SECURITY_CLASSIFICATION ( '', '', #5 ) ;
#131 = CARTESIAN_POINT ( 'NONE',  ( 0.0000000000000000000, 0.0000000000000000000, 0.0000000000000000000 ) ) ;
#132 = CARTESIAN_POINT ( 'NONE',  ( 2.444036937190193349E-14, 0.4999999999999953371, 7.000000000000000000 ) ) ;
#133 = DIRECTION ( 'NONE',  ( -3.491481338843133355E-15, 1.224646799147353207E-16, -1.000000000000000000 ) ) ;
#134 = ADVANCED_FACE ( 'NONE', ( #181 ), #163, .T. ) ;
#135 = EDGE_LOOP ( 'NONE', ( #193 ) ) ;
#136 = CYLINDRICAL_SURFACE ( 'NONE', #148, 0.4999999999999957812 ) ;
#137 = ADVANCED_BREP_SHAPE_REPRESENTATION ( '40275', ( #119, #51, #156 ), #39 ) ;
#138 = PERSON_AND_ORGANIZATION_ROLE ( 'creator' ) ;
#139 = MECHANICAL_CONTEXT ( 'NONE', #110, 'mechanical' ) ;
#140 = APPROVAL_ROLE ( '' ) ;
#141 = EDGE_CURVE ( 'NONE', #197, #197, #83, .T. ) ;
#142 = PERSON_AND_ORGANIZATION ( #150, #195 ) ;
#143 = EDGE_LOOP ( 'NONE', ( #52 ) ) ;
#144 = CIRCLE ( 'NONE', #49, 0.4999999999999962252 ) ;
#145 = PERSON_AND_ORGANIZATION ( #150, #195 ) ;
#146 = SHAPE_DEFINITION_REPRESENTATION ( #13, #137 ) ;
#147 = ORIENTED_EDGE ( 'NONE', *, *, #99, .F. ) ;
#148 = AXIS2_PLACEMENT_3D ( 'NONE', #131, #28, #73 ) ;
#149 = EDGE_LOOP ( 'NONE', ( #147 ) ) ;
#150 = PERSON ( 'UNSPECIFIED', 'UNSPECIFIED', 'UNSPECIFIED', ('UNSPECIFIED'), ('UNSPECIFIED'), ('UNSPECIFIED') ) ;
#151 = ORIENTED_EDGE ( 'NONE', *, *, #2, .F. ) ;
#152 = VERTEX_POINT ( 'NONE', #11 ) ;
#153 = DIRECTION ( 'NONE',  ( -4.275831445896958607E-31, -1.000000000000000000, -1.224646799147353207E-16 ) ) ;
#154 = FACE_BOUND ( 'NONE', #113, .T. ) ;
#155 = UNCERTAINTY_MEASURE_WITH_UNIT (LENGTH_MEASURE( 1.000000000000000082E-05 ), #81, 'distance_accuracy_value', 'NONE');
#156 = AXIS2_PLACEMENT_3D ( 'NONE', #63, #17, #96 ) ;
#157 = DIRECTION ( 'NONE',  ( 3.851859888774507614E-31, 1.000000000000000000, 1.084202172485514541E-16 ) ) ;
#158 = APPROVAL_ROLE ( '' ) ;
#159 = CC_DESIGN_PERSON_AND_ORGANIZATION_ASSIGNMENT ( #112, #127, ( #171 ) ) ;
#160 = APPROVAL_STATUS ( 'not_yet_approved' ) ;
#161 =( NAMED_UNIT ( * ) PLANE_ANGLE_UNIT ( ) SI_UNIT ( $, .RADIAN. ) );
#162 = APPROVAL_STATUS ( 'not_yet_approved' ) ;
#163 = CONICAL_SURFACE ( 'NONE', #77, 0.4999999999999953371, 1.047197551196592746 ) ;
#164 = CC_DESIGN_PERSON_AND_ORGANIZATION_ASSIGNMENT ( #145, #138, ( #191 ) ) ;
#165 = CALENDAR_DATE ( 2021, 6, 10 ) ;
#166 = DIRECTION ( 'NONE',  ( 3.491481338843133355E-15, -1.224646799147353207E-16, 1.000000000000000000 ) ) ;
#167 = FACE_OUTER_BOUND ( 'NONE', #78, .T. ) ;
#168 = PLANE ( 'NONE',  #129 ) ;
#169 = DIRECTION ( 'NONE',  ( 0.0000000000000000000, 1.000000000000000000, 0.0000000000000000000 ) ) ;
#170 = FACE_OUTER_BOUND ( 'NONE', #84, .T. ) ;
#171 = PRODUCT_DEFINITION_FORMATION_WITH_SPECIFIED_SOURCE ( 'ANY', '', #122, .NOT_KNOWN. ) ;
#172 = COORDINATED_UNIVERSAL_TIME_OFFSET ( 1, 0, .AHEAD. ) ;
#173 = PERSON_AND_ORGANIZATION ( #150, #195 ) ;
#174 = PERSON_AND_ORGANIZATION_ROLE ( 'classification_officer' ) ;
#175 = CC_DESIGN_APPROVAL ( #117, ( #191 ) ) ;
#176 = APPLICATION_PROTOCOL_DEFINITION ( 'international standard', 'config_control_design', 1994, #182 ) ;
#177 = EDGE_CURVE ( 'NONE', #108, #108, #102, .T. ) ;
#178 = PERSON_AND_ORGANIZATION_ROLE ( 'design_supplier' ) ;
#179 = ORIENTED_EDGE ( 'NONE', *, *, #2, .T. ) ;
#180 = CLOSED_SHELL ( 'NONE', ( #109, #97, #46, #54 ) ) ;
#181 = FACE_OUTER_BOUND ( 'NONE', #8, .T. ) ;
#182 = APPLICATION_CONTEXT ( 'configuration controlled 3d designs of mechanical parts and assemblies' ) ;
#183 = APPROVAL_PERSON_ORGANIZATION ( #32, #20, #140 ) ;
#184 = CARTESIAN_POINT ( 'NONE',  ( 2.444036937190193349E-14, -8.572527594031473190E-16, 7.000000000000000000 ) ) ;
#185 = DIRECTION ( 'NONE',  ( 3.491481338843133355E-15, -1.224646799147353207E-16, 1.000000000000000000 ) ) ;
#186 = CARTESIAN_POINT ( 'NONE',  ( 2.444036937190193349E-14, -8.572527594031473190E-16, 7.000000000000000000 ) ) ;
#187 = FACE_OUTER_BOUND ( 'NONE', #23, .T. ) ;
#188 = CC_DESIGN_SECURITY_CLASSIFICATION ( #130, ( #171 ) ) ;
#189 = PERSON_AND_ORGANIZATION_ROLE ( 'design_owner' ) ;
#190 = DATE_TIME_ROLE ( 'creation_date' ) ;
#191 = PRODUCT_DEFINITION ( 'UNKNOWN', '', #171, #10 ) ;
#192 = CONICAL_SURFACE ( 'NONE', #111, 0.2999999999999989342, 0.7853981633974599363 ) ;
#193 = ORIENTED_EDGE ( 'NONE', *, *, #141, .T. ) ;
#194 = AXIS2_PLACEMENT_3D ( 'NONE', #60, #121, #90 ) ;
#195 = ORGANIZATION ( 'UNSPECIFIED', 'UNSPECIFIED', '' ) ;
#196 = DIRECTION ( 'NONE',  ( 0.0000000000000000000, 1.000000000000000000, 0.0000000000000000000 ) ) ;
#197 = VERTEX_POINT ( 'NONE', #57 ) ;
#198 = CYLINDRICAL_SURFACE ( 'NONE', #14, 0.4999999999999976130 ) ;
#199 = DIRECTION ( 'NONE',  ( 4.275831445896958607E-31, 1.000000000000000000, 1.224646799147353207E-16 ) ) ;
#200 = PRODUCT_RELATED_PRODUCT_CATEGORY ( 'detail', '', ( #122 ) ) ;
#201 = DIRECTION ( 'NONE',  ( -3.491481338843133355E-15, 1.224646799147353207E-16, -1.000000000000000000 ) ) ;
#202 = PERSON_AND_ORGANIZATION ( #150, #195 ) ;
#203 = CIRCLE ( 'NONE', #69, 0.4999999999999962252 ) ;
ENDSEC;
END-ISO-10303-21;
