ISO-10303-21;
HEADER;
FILE_DESCRIPTION (( 'STEP AP203' ),
    '1' );
FILE_NAME ('4021.step',
    '2021-10-07T13:47:56',
    ( '' ),
    ( '' ),
    'SwSTEP 2.0',
    'SolidWorks 2019',
    '' );
FILE_SCHEMA (( 'CONFIG_CONTROL_DESIGN' ));
ENDSEC;

DATA;
#1 = CIRCLE ( 'NONE', #182, 0.4999999999999960032 ) ;
#2 = ORIENTED_EDGE ( 'NONE', *, *, #143, .F. ) ;
#3 = PERSON ( 'UNSPECIFIED', 'UNSPECIFIED', 'UNSPECIFIED', ('UNSPECIFIED'), ('UNSPECIFIED'), ('UNSPECIFIED') ) ;
#4 = APPLICATION_CONTEXT ( 'configuration controlled 3d designs of mechanical parts and assemblies' ) ;
#5 = AXIS2_PLACEMENT_3D ( 'NONE', #215, #81, #180 ) ;
#6 = DIRECTION ( 'NONE',  ( 0.0000000000000000000, -1.000000000000000000, 0.0000000000000000000 ) ) ;
#7 = APPROVAL_PERSON_ORGANIZATION ( #33, #202, #131 ) ;
#8 = VERTEX_POINT ( 'NONE', #129 ) ;
#9 = ADVANCED_FACE ( 'NONE', ( #109, #174 ), #88, .T. ) ;
#10 = DIRECTION ( 'NONE',  ( 3.491481338843133355E-15, -1.224646799147353207E-16, 1.000000000000000000 ) ) ;
#11 = PERSON_AND_ORGANIZATION_ROLE ( 'creator' ) ;
#12 = FACE_OUTER_BOUND ( 'NONE', #54, .T. ) ;
#13 = AXIS2_PLACEMENT_3D ( 'NONE', #20, #106, #157 ) ;
#14 = LOCAL_TIME ( 15, 47, 56.00000000000000000, #101 ) ;
#15 = PERSON_AND_ORGANIZATION_ROLE ( 'creator' ) ;
#16 = CLOSED_SHELL ( 'NONE', ( #89, #121, #9, #169, #100 ) ) ;
#17 = ORIENTED_EDGE ( 'NONE', *, *, #208, .F. ) ;
#18 = ORIENTED_EDGE ( 'NONE', *, *, #85, .F. ) ;
#19 = CC_DESIGN_PERSON_AND_ORGANIZATION_ASSIGNMENT ( #146, #31, ( #141 ) ) ;
#20 = CARTESIAN_POINT ( 'NONE',  ( 0.0000000000000000000, 0.0000000000000000000, 0.0000000000000000000 ) ) ;
#21 = EDGE_LOOP ( 'NONE', ( #134 ) ) ;
#22 = APPROVAL_PERSON_ORGANIZATION ( #219, #158, #50 ) ;
#23 = PRODUCT ( '4021', '4021', '', ( #189 ) ) ;
#24 = FACE_OUTER_BOUND ( 'NONE', #34, .T. ) ;
#25 = FACE_OUTER_BOUND ( 'NONE', #155, .T. ) ;
#26 = CARTESIAN_POINT ( 'NONE',  ( 1.047444401652940007E-13, 2.999519565323652267E-33, 30.00000000000000000 ) ) ;
#27 = MANIFOLD_SOLID_BREP ( 'Corps-Déplacer/Copier1[1]', #16 ) ;
#28 = SHAPE_DEFINITION_REPRESENTATION ( #112, #92 ) ;
#29 = DIRECTION ( 'NONE',  ( 0.0000000000000000000, 1.000000000000000000, 0.0000000000000000000 ) ) ;
#30 = APPLICATION_PROTOCOL_DEFINITION ( 'international standard', 'config_control_design', 1994, #4 ) ;
#31 = PERSON_AND_ORGANIZATION_ROLE ( 'classification_officer' ) ;
#32 = EDGE_CURVE ( 'NONE', #60, #60, #1, .T. ) ;
#33 = PERSON_AND_ORGANIZATION ( #3, #172 ) ;
#34 = EDGE_LOOP ( 'NONE', ( #206 ) ) ;
#35 = ORIENTED_EDGE ( 'NONE', *, *, #143, .T. ) ;
#36 = DIRECTION ( 'NONE',  ( -3.491481338843133355E-15, 1.224646799147353207E-16, -1.000000000000000000 ) ) ;
#37 = ORIENTED_EDGE ( 'NONE', *, *, #57, .T. ) ;
#38 =( GEOMETRIC_REPRESENTATION_CONTEXT ( 3 ) GLOBAL_UNCERTAINTY_ASSIGNED_CONTEXT ( ( #96 ) ) GLOBAL_UNIT_ASSIGNED_CONTEXT ( ( #198, #184, #117 ) ) REPRESENTATION_CONTEXT ( 'NONE', 'WORKASPACE' ) );
#39 = EDGE_LOOP ( 'NONE', ( #139 ) ) ;
#40 = DIRECTION ( 'NONE',  ( 5.582405635905072342E-31, 1.000000000000000000, 1.571307496355815035E-16 ) ) ;
#41 = CC_DESIGN_PERSON_AND_ORGANIZATION_ASSIGNMENT ( #133, #15, ( #67 ) ) ;
#42 = CARTESIAN_POINT ( 'NONE',  ( 1.955229549752154679E-14, 2.587085625091680494E-33, 5.599999999999999645 ) ) ;
#43 = AXIS2_PLACEMENT_3D ( 'NONE', #113, #116, #6 ) ;
#44 = PLANE ( 'NONE',  #87 ) ;
#45 = CARTESIAN_POINT ( 'NONE',  ( 1.955229549752154679E-14, 0.3449999999999974198, 5.599999999999999645 ) ) ;
#46 = COORDINATED_UNIVERSAL_TIME_OFFSET ( 1, 0, .AHEAD. ) ;
#47 = DATE_AND_TIME ( #84, #222 ) ;
#48 = APPROVAL_DATE_TIME ( #130, #202 ) ;
#49 = ADVANCED_FACE ( 'NONE', ( #90, #51 ), #70, .T. ) ;
#50 = APPROVAL_ROLE ( '' ) ;
#51 = FACE_OUTER_BOUND ( 'NONE', #74, .T. ) ;
#52 = CLOSED_SHELL ( 'NONE', ( #195, #49, #187 ) ) ;
#53 = DIRECTION ( 'NONE',  ( -3.491481338843133355E-15, 1.224646799147353207E-16, -1.000000000000000000 ) ) ;
#54 = EDGE_LOOP ( 'NONE', ( #17 ) ) ;
#55 = AXIS2_PLACEMENT_3D ( 'NONE', #135, #53, #120 ) ;
#56 = CARTESIAN_POINT ( 'NONE',  ( 7.237733053102611845E-16, -2.538655016699015008E-17, 0.2072969135645090222 ) ) ;
#57 = EDGE_CURVE ( 'NONE', #91, #91, #136, .T. ) ;
#58 = CIRCLE ( 'NONE', #178, 0.4999999999999989453 ) ;
#59 = PRODUCT_DEFINITION_FORMATION_WITH_SPECIFIED_SOURCE ( 'ANY', '', #23, .NOT_KNOWN. ) ;
#60 = VERTEX_POINT ( 'NONE', #160 ) ;
#61 = VERTEX_POINT ( 'NONE', #79 ) ;
#62 = APPROVAL_STATUS ( 'not_yet_approved' ) ;
#63 = AXIS2_PLACEMENT_3D ( 'NONE', #192, #36, #107 ) ;
#64 = CARTESIAN_POINT ( 'NONE',  ( 1.047444401652940007E-13, 0.3999999999999953038, 30.00000000000000000 ) ) ;
#65 = PERSON_AND_ORGANIZATION_ROLE ( 'design_owner' ) ;
#66 = APPLICATION_PROTOCOL_DEFINITION ( 'international standard', 'config_control_design', 1994, #216 ) ;
#67 = PRODUCT_DEFINITION ( 'UNKNOWN', '', #59, #78 ) ;
#68 = APPROVAL_ROLE ( '' ) ;
#69 = DATE_AND_TIME ( #167, #165 ) ;
#70 = CYLINDRICAL_SURFACE ( 'NONE', #55, 0.3449999999999978084 ) ;
#71 = CIRCLE ( 'NONE', #191, 0.3449999999999981415 ) ;
#72 = EDGE_LOOP ( 'NONE', ( #154 ) ) ;
#73 = CC_DESIGN_PERSON_AND_ORGANIZATION_ASSIGNMENT ( #183, #149, ( #59 ) ) ;
#74 = EDGE_LOOP ( 'NONE', ( #35 ) ) ;
#75 = PLANE ( 'NONE',  #211 ) ;
#76 = CC_DESIGN_APPROVAL ( #158, ( #59 ) ) ;
#77 = VERTEX_POINT ( 'NONE', #64 ) ;
#78 = DESIGN_CONTEXT ( 'detailed design', #4, 'design' ) ;
#79 = CARTESIAN_POINT ( 'NONE',  ( 1.043952920314096936E-13, 0.4999999999999952260, 29.90000000000000213 ) ) ;
#80 = PERSON_AND_ORGANIZATION ( #3, #172 ) ;
#81 = DIRECTION ( 'NONE',  ( -3.491481338843133355E-15, 1.224646799147353207E-16, -1.000000000000000000 ) ) ;
#82 = AXIS2_PLACEMENT_3D ( 'NONE', #212, #162, #127 ) ;
#83 = AXIS2_PLACEMENT_3D ( 'NONE', #103, #201, #203 ) ;
#84 = CALENDAR_DATE ( 2021, 7, 10 ) ;
#85 = EDGE_CURVE ( 'NONE', #61, #61, #58, .T. ) ;
#86 = APPROVAL_DATE_TIME ( #97, #158 ) ;
#87 = AXIS2_PLACEMENT_3D ( 'NONE', #42, #159, #177 ) ;
#88 = CYLINDRICAL_SURFACE ( 'NONE', #13, 0.4999999999999973910 ) ;
#89 = ADVANCED_FACE ( 'NONE', ( #163 ), #44, .F. ) ;
#90 = FACE_OUTER_BOUND ( 'NONE', #72, .T. ) ;
#91 = VERTEX_POINT ( 'NONE', #45 ) ;
#92 = ADVANCED_BREP_SHAPE_REPRESENTATION ( '4021', ( #27, #104, #83 ), #38 ) ;
#93 = CARTESIAN_POINT ( 'NONE',  ( 1.955229549752154679E-14, -6.858022075225177566E-16, 5.599999999999999645 ) ) ;
#94 = CC_DESIGN_SECURITY_CLASSIFICATION ( #141, ( #59 ) ) ;
#95 = CARTESIAN_POINT ( 'NONE',  ( 1.955229549752154679E-14, 2.587085625091680494E-33, 5.599999999999999645 ) ) ;
#96 = UNCERTAINTY_MEASURE_WITH_UNIT (LENGTH_MEASURE( 1.000000000000000082E-05 ), #198, 'distance_accuracy_value', 'NONE');
#97 = DATE_AND_TIME ( #150, #14 ) ;
#98 = DIRECTION ( 'NONE',  ( -4.275831445896958607E-31, -1.000000000000000000, -1.224646799147353207E-16 ) ) ;
#99 = DIRECTION ( 'NONE',  ( 3.491481338843133355E-15, -1.224646799147353207E-16, 1.000000000000000000 ) ) ;
#100 = ADVANCED_FACE ( 'NONE', ( #12 ), #197, .F. ) ;
#101 = COORDINATED_UNIVERSAL_TIME_OFFSET ( 1, 0, .AHEAD. ) ;
#102 = APPROVAL_DATE_TIME ( #151, #137 ) ;
#103 = CARTESIAN_POINT ( 'NONE',  ( 0.0000000000000000000, 0.0000000000000000000, 0.0000000000000000000 ) ) ;
#104 = MANIFOLD_SOLID_BREP ( 'Corps-Déplacer/Copier1[2]', #52 ) ;
#105 = DIRECTION ( 'NONE',  ( 0.0000000000000000000, 1.000000000000000000, 0.0000000000000000000 ) ) ;
#106 = DIRECTION ( 'NONE',  ( -3.491481338843133355E-15, 1.224646799147353207E-16, -1.000000000000000000 ) ) ;
#107 = DIRECTION ( 'NONE',  ( 0.0000000000000000000, 1.000000000000000000, 0.0000000000000000000 ) ) ;
#108 = ORIENTED_EDGE ( 'NONE', *, *, #32, .F. ) ;
#109 = FACE_OUTER_BOUND ( 'NONE', #138, .T. ) ;
#110 = CARTESIAN_POINT ( 'NONE',  ( 7.237733053102611845E-16, -2.538655016699015008E-17, 0.2072969135645090222 ) ) ;
#111 = CONICAL_SURFACE ( 'NONE', #82, 0.3999999999999989675, 0.7853981633974683740 ) ;
#112 = PRODUCT_DEFINITION_SHAPE ( 'NONE', 'NONE',  #67 ) ;
#113 = CARTESIAN_POINT ( 'NONE',  ( 2.157200528880896530E-14, -7.566440906965590101E-16, 6.178467875173185853 ) ) ;
#114 = EDGE_CURVE ( 'NONE', #8, #8, #126, .T. ) ;
#115 = APPROVAL_PERSON_ORGANIZATION ( #80, #137, #68 ) ;
#116 = DIRECTION ( 'NONE',  ( 3.491481338843133355E-15, -1.224646799147353207E-16, 1.000000000000000000 ) ) ;
#117 =( NAMED_UNIT ( * ) SI_UNIT ( $, .STERADIAN. ) SOLID_ANGLE_UNIT ( ) );
#118 = APPROVAL_STATUS ( 'not_yet_approved' ) ;
#119 = LOCAL_TIME ( 15, 47, 56.00000000000000000, #221 ) ;
#120 = DIRECTION ( 'NONE',  ( 4.275831445896959482E-31, 1.000000000000000000, 1.224646799147353207E-16 ) ) ;
#121 = ADVANCED_FACE ( 'NONE', ( #213, #218 ), #207, .T. ) ;
#122 = EDGE_LOOP ( 'NONE', ( #193 ) ) ;
#123 = EDGE_LOOP ( 'NONE', ( #2 ) ) ;
#124 = CC_DESIGN_APPROVAL ( #137, ( #141 ) ) ;
#125 = DIRECTION ( 'NONE',  ( -3.491481338843133355E-15, 1.224646799147353207E-16, -1.000000000000000000 ) ) ;
#126 = CIRCLE ( 'NONE', #210, 0.3449999999999974754 ) ;
#127 = DIRECTION ( 'NONE',  ( 0.0000000000000000000, 1.000000000000000000, 0.0000000000000000000 ) ) ;
#128 = CC_DESIGN_PERSON_AND_ORGANIZATION_ASSIGNMENT ( #152, #65, ( #23 ) ) ;
#129 = CARTESIAN_POINT ( 'NONE',  ( 7.237733053102613817E-16, 0.3449999999999974754, 0.2072969135645090777 ) ) ;
#130 = DATE_AND_TIME ( #170, #119 ) ;
#131 = APPROVAL_ROLE ( '' ) ;
#132 = LOCAL_TIME ( 15, 47, 56.00000000000000000, #166 ) ;
#133 = PERSON_AND_ORGANIZATION ( #3, #172 ) ;
#134 = ORIENTED_EDGE ( 'NONE', *, *, #57, .F. ) ;
#135 = CARTESIAN_POINT ( 'NONE',  ( 0.0000000000000000000, 0.0000000000000000000, 0.0000000000000000000 ) ) ;
#136 = CIRCLE ( 'NONE', #63, 0.3449999999999981415 ) ;
#137 = APPROVAL ( #62, 'UNSPECIFIED' ) ;
#138 = EDGE_LOOP ( 'NONE', ( #108 ) ) ;
#139 = ORIENTED_EDGE ( 'NONE', *, *, #32, .T. ) ;
#140 = AXIS2_PLACEMENT_3D ( 'NONE', #26, #148, #200 ) ;
#141 = SECURITY_CLASSIFICATION ( '', '', #147 ) ;
#142 = FACE_OUTER_BOUND ( 'NONE', #123, .T. ) ;
#143 = EDGE_CURVE ( 'NONE', #199, #199, #71, .T. ) ;
#144 = DIRECTION ( 'NONE',  ( -5.582405635905072342E-31, -1.000000000000000000, -1.571307496355815035E-16 ) ) ;
#145 = DIRECTION ( 'NONE',  ( -3.491481338843133355E-15, 1.224646799147353207E-16, -1.000000000000000000 ) ) ;
#146 = PERSON_AND_ORGANIZATION ( #3, #172 ) ;
#147 = SECURITY_CLASSIFICATION_LEVEL ( 'unclassified' ) ;
#148 = DIRECTION ( 'NONE',  ( -3.491481338843133355E-15, 1.224646799147353207E-16, -1.000000000000000000 ) ) ;
#149 = PERSON_AND_ORGANIZATION_ROLE ( 'design_supplier' ) ;
#150 = CALENDAR_DATE ( 2021, 7, 10 ) ;
#151 = DATE_AND_TIME ( #186, #132 ) ;
#152 = PERSON_AND_ORGANIZATION ( #3, #172 ) ;
#153 = CC_DESIGN_DATE_AND_TIME_ASSIGNMENT ( #69, #205, ( #67 ) ) ;
#154 = ORIENTED_EDGE ( 'NONE', *, *, #114, .F. ) ;
#155 = EDGE_LOOP ( 'NONE', ( #18 ) ) ;
#156 = CONICAL_SURFACE ( 'NONE', #161, 0.3449999999999974754, 1.029744258676649871 ) ;
#157 = DIRECTION ( 'NONE',  ( 4.275831445896958607E-31, 1.000000000000000000, 1.224646799147353207E-16 ) ) ;
#158 = APPROVAL ( #118, 'UNSPECIFIED' ) ;
#159 = DIRECTION ( 'NONE',  ( 3.491481338843133355E-15, -1.224646799147353207E-16, 1.000000000000000000 ) ) ;
#160 = CARTESIAN_POINT ( 'NONE',  ( 2.157200528880896530E-14, 0.4999999999999952260, 6.178467875173185853 ) ) ;
#161 = AXIS2_PLACEMENT_3D ( 'NONE', #110, #10, #144 ) ;
#162 = DIRECTION ( 'NONE',  ( -3.491481338843133355E-15, 1.224646799147353207E-16, -1.000000000000000000 ) ) ;
#163 = FACE_OUTER_BOUND ( 'NONE', #194, .T. ) ;
#164 = CARTESIAN_POINT ( 'NONE',  ( 1.955229549752154679E-14, 0.3449999999999974198, 5.599999999999999645 ) ) ;
#165 = LOCAL_TIME ( 15, 47, 56.00000000000000000, #46 ) ;
#166 = COORDINATED_UNIVERSAL_TIME_OFFSET ( 1, 0, .AHEAD. ) ;
#167 = CALENDAR_DATE ( 2021, 7, 10 ) ;
#168 = DATE_TIME_ROLE ( 'classification_date' ) ;
#169 = ADVANCED_FACE ( 'NONE', ( #25, #196 ), #111, .T. ) ;
#170 = CALENDAR_DATE ( 2021, 7, 10 ) ;
#171 = CIRCLE ( 'NONE', #5, 0.3999999999999989675 ) ;
#172 = ORGANIZATION ( 'UNSPECIFIED', 'UNSPECIFIED', '' ) ;
#173 = CARTESIAN_POINT ( 'NONE',  ( 1.043952920314096936E-13, -3.661693929450586610E-15, 29.90000000000000213 ) ) ;
#174 = FACE_OUTER_BOUND ( 'NONE', #122, .T. ) ;
#175 = DIRECTION ( 'NONE',  ( -3.491481338843133355E-15, 1.224646799147353207E-16, -1.000000000000000000 ) ) ;
#176 = CC_DESIGN_DATE_AND_TIME_ASSIGNMENT ( #47, #168, ( #141 ) ) ;
#177 = DIRECTION ( 'NONE',  ( -4.275831445896958607E-31, -1.000000000000000000, -1.224646799147353207E-16 ) ) ;
#178 = AXIS2_PLACEMENT_3D ( 'NONE', #173, #125, #185 ) ;
#179 = PRODUCT_RELATED_PRODUCT_CATEGORY ( 'detail', '', ( #23 ) ) ;
#180 = DIRECTION ( 'NONE',  ( 0.0000000000000000000, 1.000000000000000000, 0.0000000000000000000 ) ) ;
#181 = DIRECTION ( 'NONE',  ( -3.491481338843133355E-15, 1.224646799147353207E-16, -1.000000000000000000 ) ) ;
#182 = AXIS2_PLACEMENT_3D ( 'NONE', #209, #175, #105 ) ;
#183 = PERSON_AND_ORGANIZATION ( #3, #172 ) ;
#184 =( NAMED_UNIT ( * ) PLANE_ANGLE_UNIT ( ) SI_UNIT ( $, .RADIAN. ) );
#185 = DIRECTION ( 'NONE',  ( 0.0000000000000000000, 1.000000000000000000, 0.0000000000000000000 ) ) ;
#186 = CALENDAR_DATE ( 2021, 7, 10 ) ;
#187 = ADVANCED_FACE ( 'NONE', ( #142 ), #75, .T. ) ;
#188 = APPROVAL_STATUS ( 'not_yet_approved' ) ;
#189 = MECHANICAL_CONTEXT ( 'NONE', #216, 'mechanical' ) ;
#190 = ORIENTED_EDGE ( 'NONE', *, *, #208, .T. ) ;
#191 = AXIS2_PLACEMENT_3D ( 'NONE', #93, #181, #29 ) ;
#192 = CARTESIAN_POINT ( 'NONE',  ( 1.955229549752154679E-14, -6.858022075225177566E-16, 5.599999999999999645 ) ) ;
#193 = ORIENTED_EDGE ( 'NONE', *, *, #85, .T. ) ;
#194 = EDGE_LOOP ( 'NONE', ( #37 ) ) ;
#195 = ADVANCED_FACE ( 'NONE', ( #24 ), #156, .T. ) ;
#196 = FACE_BOUND ( 'NONE', #223, .T. ) ;
#197 = PLANE ( 'NONE',  #140 ) ;
#198 =( LENGTH_UNIT ( ) NAMED_UNIT ( * ) SI_UNIT ( .MILLI., .METRE. ) );
#199 = VERTEX_POINT ( 'NONE', #164 ) ;
#200 = DIRECTION ( 'NONE',  ( 4.275831445896958607E-31, 1.000000000000000000, 1.224646799147353207E-16 ) ) ;
#201 = DIRECTION ( 'NONE',  ( 0.0000000000000000000, 0.0000000000000000000, 1.000000000000000000 ) ) ;
#202 = APPROVAL ( #188, 'UNSPECIFIED' ) ;
#203 = DIRECTION ( 'NONE',  ( 1.000000000000000000, 0.0000000000000000000, 0.0000000000000000000 ) ) ;
#204 = CC_DESIGN_APPROVAL ( #202, ( #67 ) ) ;
#205 = DATE_TIME_ROLE ( 'creation_date' ) ;
#206 = ORIENTED_EDGE ( 'NONE', *, *, #114, .T. ) ;
#207 = CONICAL_SURFACE ( 'NONE', #43, 0.4999999999999960032, 0.2617993877991418028 ) ;
#208 = EDGE_CURVE ( 'NONE', #77, #77, #171, .T. ) ;
#209 = CARTESIAN_POINT ( 'NONE',  ( 2.157200528880896530E-14, -7.566440906965590101E-16, 6.178467875173185853 ) ) ;
#210 = AXIS2_PLACEMENT_3D ( 'NONE', #56, #145, #40 ) ;
#211 = AXIS2_PLACEMENT_3D ( 'NONE', #95, #99, #98 ) ;
#212 = CARTESIAN_POINT ( 'NONE',  ( 1.047444401652940007E-13, -3.673940397442059178E-15, 30.00000000000000000 ) ) ;
#213 = FACE_BOUND ( 'NONE', #21, .T. ) ;
#214 = CC_DESIGN_PERSON_AND_ORGANIZATION_ASSIGNMENT ( #220, #11, ( #59 ) ) ;
#215 = CARTESIAN_POINT ( 'NONE',  ( 1.047444401652940007E-13, -3.673940397442059178E-15, 30.00000000000000000 ) ) ;
#216 = APPLICATION_CONTEXT ( 'configuration controlled 3d designs of mechanical parts and assemblies' ) ;
#217 = COORDINATED_UNIVERSAL_TIME_OFFSET ( 1, 0, .AHEAD. ) ;
#218 = FACE_OUTER_BOUND ( 'NONE', #39, .T. ) ;
#219 = PERSON_AND_ORGANIZATION ( #3, #172 ) ;
#220 = PERSON_AND_ORGANIZATION ( #3, #172 ) ;
#221 = COORDINATED_UNIVERSAL_TIME_OFFSET ( 1, 0, .AHEAD. ) ;
#222 = LOCAL_TIME ( 15, 47, 56.00000000000000000, #217 ) ;
#223 = EDGE_LOOP ( 'NONE', ( #190 ) ) ;
ENDSEC;
END-ISO-10303-21;
