ISO-10303-21;
HEADER;
FILE_DESCRIPTION (( 'STEP AP203' ),
    '1' );
FILE_NAME ('4020.step',
    '2021-09-03T07:22:08',
    ( '' ),
    ( '' ),
    'SwSTEP 2.0',
    'SolidWorks 2019',
    '' );
FILE_SCHEMA (( 'CONFIG_CONTROL_DESIGN' ));
ENDSEC;

DATA;
#1 = ADVANCED_FACE ( 'NONE', ( #48 ), #18, .T. ) ;
#2 = VECTOR ( 'NONE', #249, 1000.000000000000000 ) ;
#3 = AXIS2_PLACEMENT_3D ( 'NONE', #280, #220, #15 ) ;
#4 = DIRECTION ( 'NONE',  ( -3.491481338843133355E-15, 1.224646799147353454E-16, -1.000000000000000000 ) ) ;
#5 = CARTESIAN_POINT ( 'NONE',  ( 1.815570296198429345E-13, 9.935908560134710860E-33, 52.00000000000000000 ) ) ;
#6 = CARTESIAN_POINT ( 'NONE',  ( 1.817192953207299314E-13, -1.325000000000005507, 52.00000000000000000 ) ) ;
#7 = CYLINDRICAL_SURFACE ( 'NONE', #122, 1.724999999999996536 ) ;
#8 = DIRECTION ( 'NONE',  ( -3.491481338843133355E-15, 1.224646799147353454E-16, -1.000000000000000000 ) ) ;
#9 = CYLINDRICAL_SURFACE ( 'NONE', #318, 1.724999999999996536 ) ;
#10 = ADVANCED_FACE ( 'NONE', ( #313 ), #7, .T. ) ;
#11 = AXIS2_PLACEMENT_3D ( 'NONE', #224, #215, #88 ) ;
#12 = AXIS2_PLACEMENT_3D ( 'NONE', #87, #205, #55 ) ;
#13 = LINE ( 'NONE', #296, #201 ) ;
#14 = DIRECTION ( 'NONE',  ( 0.0000000000000000000, 1.000000000000000000, 0.0000000000000000000 ) ) ;
#15 = DIRECTION ( 'NONE',  ( -4.275831445896959482E-31, -1.000000000000000000, -1.224646799147353454E-16 ) ) ;
#16 = COORDINATED_UNIVERSAL_TIME_OFFSET ( 1, 0, .AHEAD. ) ;
#17 = CARTESIAN_POINT ( 'NONE',  ( 1.815570296198429345E-13, -6.368163355566237959E-15, 52.00000000000000000 ) ) ;
#18 = CONICAL_SURFACE ( 'NONE', #288, 1.724999999999992761, 1.029744258676649649 ) ;
#19 = DIRECTION ( 'NONE',  ( 0.0000000000000000000, 1.000000000000000000, 0.0000000000000000000 ) ) ;
#20 = CC_DESIGN_PERSON_AND_ORGANIZATION_ASSIGNMENT ( #211, #176, ( #139 ) ) ;
#21 = ORIENTED_EDGE ( 'NONE', *, *, #46, .T. ) ;
#22 = ADVANCED_BREP_SHAPE_REPRESENTATION ( '4020', ( #159, #156, #114 ), #81 ) ;
#23 = CONICAL_SURFACE ( 'NONE', #223, 1.324999999999999067, 0.7853981633974597143 ) ;
#24 = EDGE_CURVE ( 'NONE', #152, #150, #194, .T. ) ;
#25 = PERSON ( 'UNSPECIFIED', 'UNSPECIFIED', 'UNSPECIFIED', ('UNSPECIFIED'), ('UNSPECIFIED'), ('UNSPECIFIED') ) ;
#26 = APPROVAL_STATUS ( 'not_yet_approved' ) ;
#27 = DIRECTION ( 'NONE',  ( 0.0000000000000000000, 1.000000000000000000, 0.0000000000000000000 ) ) ;
#28 = CC_DESIGN_SECURITY_CLASSIFICATION ( #56, ( #139 ) ) ;
#29 = CYLINDRICAL_SURFACE ( 'NONE', #196, 1.724999999999993427 ) ;
#30 = CARTESIAN_POINT ( 'NONE',  ( 2.112515728529172825E-16, -1.724999999999996536, -2.112515728529187617E-16 ) ) ;
#31 = SECURITY_CLASSIFICATION_LEVEL ( 'unclassified' ) ;
#32 = DIRECTION ( 'NONE',  ( -3.491481338843133355E-15, 1.224646799147353454E-16, -1.000000000000000000 ) ) ;
#33 = COORDINATED_UNIVERSAL_TIME_OFFSET ( 1, 0, .AHEAD. ) ;
#34 = ORIENTED_EDGE ( 'NONE', *, *, #147, .T. ) ;
#35 = PRODUCT_DEFINITION ( 'UNKNOWN', '', #139, #67 ) ;
#36 = CARTESIAN_POINT ( 'NONE',  ( 0.0000000000000000000, 0.0000000000000000000, 0.0000000000000000000 ) ) ;
#37 = APPROVAL_STATUS ( 'not_yet_approved' ) ;
#38 = CIRCLE ( 'NONE', #232, 1.724999999999994316 ) ;
#39 = ORIENTED_EDGE ( 'NONE', *, *, #123, .T. ) ;
#40 = ORIENTED_EDGE ( 'NONE', *, *, #46, .F. ) ;
#41 = LINE ( 'NONE', #6, #92 ) ;
#42 = ORIENTED_EDGE ( 'NONE', *, *, #325, .F. ) ;
#43 = CALENDAR_DATE ( 2021, 3, 9 ) ;
#44 = CONICAL_SURFACE ( 'NONE', #278, 1.724999999999992761, 1.029744258676649649 ) ;
#45 = CALENDAR_DATE ( 2021, 3, 9 ) ;
#46 = EDGE_CURVE ( 'NONE', #239, #277, #265, .T. ) ;
#47 = DIRECTION ( 'NONE',  ( -3.491481338843133355E-15, 1.224646799147353454E-16, -1.000000000000000000 ) ) ;
#48 = FACE_OUTER_BOUND ( 'NONE', #63, .T. ) ;
#49 = COORDINATED_UNIVERSAL_TIME_OFFSET ( 1, 0, .AHEAD. ) ;
#50 = DIRECTION ( 'NONE',  ( 3.491481338843133355E-15, -1.224646799147353454E-16, 1.000000000000000000 ) ) ;
#51 = CARTESIAN_POINT ( 'NONE',  ( 5.237222008264700033E-14, -1.836970198721029983E-15, 15.00000000000000000 ) ) ;
#52 = PERSON_AND_ORGANIZATION ( #25, #100 ) ;
#53 = DIRECTION ( 'NONE',  ( -3.491481338843133355E-15, 1.224646799147353454E-16, -1.000000000000000000 ) ) ;
#54 = CIRCLE ( 'NONE', #108, 1.324999999999999067 ) ;
#55 = DIRECTION ( 'NONE',  ( 0.0000000000000000000, 1.000000000000000000, 0.0000000000000000000 ) ) ;
#56 = SECURITY_CLASSIFICATION ( '', '', #31 ) ;
#57 = FACE_OUTER_BOUND ( 'NONE', #146, .T. ) ;
#58 = VERTEX_POINT ( 'NONE', #234 ) ;
#59 = AXIS2_PLACEMENT_3D ( 'NONE', #185, #299, #65 ) ;
#60 = ORIENTED_EDGE ( 'NONE', *, *, #103, .F. ) ;
#61 = DIRECTION ( 'NONE',  ( -3.491481338843133355E-15, 1.224646799147353454E-16, -1.000000000000000000 ) ) ;
#62 = PERSON_AND_ORGANIZATION ( #25, #100 ) ;
#63 = EDGE_LOOP ( 'NONE', ( #68, #69, #141 ) ) ;
#64 = ORIENTED_EDGE ( 'NONE', *, *, #271, .F. ) ;
#65 = DIRECTION ( 'NONE',  ( 4.465924508724043685E-31, 1.000000000000000000, 1.257045997084648035E-16 ) ) ;
#66 = APPROVAL ( #37, 'UNSPECIFIED' ) ;
#67 = DESIGN_CONTEXT ( 'detailed design', #112, 'design' ) ;
#68 = ORIENTED_EDGE ( 'NONE', *, *, #195, .F. ) ;
#69 = ORIENTED_EDGE ( 'NONE', *, *, #271, .T. ) ;
#70 = DIRECTION ( 'NONE',  ( -3.491481338843133355E-15, 1.224646799147353454E-16, -1.000000000000000000 ) ) ;
#71 = EDGE_CURVE ( 'NONE', #161, #331, #38, .T. ) ;
#72 = AXIS2_PLACEMENT_3D ( 'NONE', #5, #61, #208 ) ;
#73 = ORIENTED_EDGE ( 'NONE', *, *, #292, .F. ) ;
#74 = CARTESIAN_POINT ( 'NONE',  ( 1.815570296198429345E-13, -6.368163355566237959E-15, 52.00000000000000000 ) ) ;
#75 = CARTESIAN_POINT ( 'NONE',  ( 1.164775801563292153E-13, -1.724999999999996092, 15.00000000000000000 ) ) ;
#76 = CARTESIAN_POINT ( 'NONE',  ( 1.164775801563290891E-13, -1.725000000000004974, 51.60000000000000853 ) ) ;
#77 = DIRECTION ( 'NONE',  ( -4.465924508724043685E-31, -1.000000000000000000, -1.257045997084648035E-16 ) ) ;
#78 = EDGE_LOOP ( 'NONE', ( #115, #34, #198, #94 ) ) ;
#79 = APPROVAL ( #26, 'UNSPECIFIED' ) ;
#80 = LINE ( 'NONE', #30, #334 ) ;
#81 =( GEOMETRIC_REPRESENTATION_CONTEXT ( 3 ) GLOBAL_UNCERTAINTY_ASSIGNED_CONTEXT ( ( #188 ) ) GLOBAL_UNIT_ASSIGNED_CONTEXT ( ( #244, #213, #83 ) ) REPRESENTATION_CONTEXT ( 'NONE', 'WORKASPACE' ) );
#82 = CALENDAR_DATE ( 2021, 3, 9 ) ;
#83 =( NAMED_UNIT ( * ) SI_UNIT ( $, .STERADIAN. ) SOLID_ANGLE_UNIT ( ) );
#84 = ADVANCED_FACE ( 'NONE', ( #238 ), #9, .T. ) ;
#85 = DATE_AND_TIME ( #134, #273 ) ;
#86 = DIRECTION ( 'NONE',  ( 4.275831445896959482E-31, 1.000000000000000000, 1.224646799147353454E-16 ) ) ;
#87 = CARTESIAN_POINT ( 'NONE',  ( 5.237222008264700033E-14, -1.836970198721029983E-15, 15.00000000000000000 ) ) ;
#88 = DIRECTION ( 'NONE',  ( 0.0000000000000000000, 1.000000000000000000, 0.0000000000000000000 ) ) ;
#89 = CARTESIAN_POINT ( 'NONE',  ( 3.830118099404236024E-15, 1.724999999999992539, 1.036484567822548719 ) ) ;
#90 = CC_DESIGN_PERSON_AND_ORGANIZATION_ASSIGNMENT ( #276, #279, ( #171 ) ) ;
#91 = PERSON_AND_ORGANIZATION ( #25, #100 ) ;
#92 = VECTOR ( 'NONE', #282, 1000.000000000000000 ) ;
#93 = FACE_OUTER_BOUND ( 'NONE', #78, .T. ) ;
#94 = ORIENTED_EDGE ( 'NONE', *, *, #102, .F. ) ;
#95 = FACE_OUTER_BOUND ( 'NONE', #236, .T. ) ;
#96 = MECHANICAL_CONTEXT ( 'NONE', #157, 'mechanical' ) ;
#97 = DIRECTION ( 'NONE',  ( 1.798245827342160317E-15, -0.8571673007021098911, 0.5150380749100582634 ) ) ;
#98 = FACE_OUTER_BOUND ( 'NONE', #330, .T. ) ;
#99 = AXIS2_PLACEMENT_3D ( 'NONE', #51, #264, #27 ) ;
#100 = ORGANIZATION ( 'UNSPECIFIED', 'UNSPECIFIED', '' ) ;
#101 = ORIENTED_EDGE ( 'NONE', *, *, #325, .T. ) ;
#102 = EDGE_CURVE ( 'NONE', #246, #277, #13, .T. ) ;
#103 = EDGE_CURVE ( 'NONE', #161, #117, #119, .T. ) ;
#104 = ORIENTED_EDGE ( 'NONE', *, *, #237, .F. ) ;
#105 = DIRECTION ( 'NONE',  ( -3.491481338843133355E-15, 1.224646799147353454E-16, -1.000000000000000000 ) ) ;
#106 = PLANE ( 'NONE',  #72 ) ;
#107 = CIRCLE ( 'NONE', #11, 1.324999999999999067 ) ;
#108 = AXIS2_PLACEMENT_3D ( 'NONE', #17, #217, #333 ) ;
#109 = ORIENTED_EDGE ( 'NONE', *, *, #153, .F. ) ;
#110 = ADVANCED_FACE ( 'NONE', ( #166 ), #149, .T. ) ;
#111 = VERTEX_POINT ( 'NONE', #89 ) ;
#112 = APPLICATION_CONTEXT ( 'configuration controlled 3d designs of mechanical parts and assemblies' ) ;
#113 = PERSON_AND_ORGANIZATION ( #25, #100 ) ;
#114 = AXIS2_PLACEMENT_3D ( 'NONE', #289, #174, #160 ) ;
#115 = ORIENTED_EDGE ( 'NONE', *, *, #116, .T. ) ;
#116 = EDGE_CURVE ( 'NONE', #246, #58, #107, .T. ) ;
#117 = VERTEX_POINT ( 'NONE', #329 ) ;
#118 = CARTESIAN_POINT ( 'NONE',  ( 1.815570296198429345E-13, -6.368163355566237959E-15, 52.00000000000000000 ) ) ;
#119 = LINE ( 'NONE', #143, #2 ) ;
#120 = CARTESIAN_POINT ( 'NONE',  ( 5.237222008264700033E-14, 1.724999999999992539, 15.00000000000000000 ) ) ;
#121 = CARTESIAN_POINT ( 'NONE',  ( 5.237222008264700033E-14, 1.293542812545846029E-32, 15.00000000000000000 ) ) ;
#122 = AXIS2_PLACEMENT_3D ( 'NONE', #308, #128, #260 ) ;
#123 = EDGE_CURVE ( 'NONE', #331, #111, #190, .T. ) ;
#124 = CARTESIAN_POINT ( 'NONE',  ( 2.820679487745205192E-14, -1.724999999999996314, 15.00000000000000000 ) ) ;
#125 = EDGE_LOOP ( 'NONE', ( #287, #274 ) ) ;
#126 = DATE_AND_TIME ( #314, #242 ) ;
#127 = CARTESIAN_POINT ( 'NONE',  ( 0.0000000000000000000, 0.0000000000000000000, 0.0000000000000000000 ) ) ;
#128 = DIRECTION ( 'NONE',  ( -3.491481338843133355E-15, 1.224646799147353454E-16, -1.000000000000000000 ) ) ;
#129 = PERSON_AND_ORGANIZATION ( #25, #100 ) ;
#130 = EDGE_CURVE ( 'NONE', #117, #111, #241, .T. ) ;
#131 = AXIS2_PLACEMENT_3D ( 'NONE', #121, #50, #206 ) ;
#132 = LOCAL_TIME ( 9, 22, 8.000000000000000000, #257 ) ;
#133 = ORIENTED_EDGE ( 'NONE', *, *, #169, .F. ) ;
#134 = CALENDAR_DATE ( 2021, 3, 9 ) ;
#135 = DIRECTION ( 'NONE',  ( 0.0000000000000000000, 1.000000000000000000, 0.0000000000000000000 ) ) ;
#136 = CC_DESIGN_DATE_AND_TIME_ASSIGNMENT ( #126, #283, ( #35 ) ) ;
#137 = AXIS2_PLACEMENT_3D ( 'NONE', #179, #32, #14 ) ;
#138 = ORIENTED_EDGE ( 'NONE', *, *, #103, .T. ) ;
#139 = PRODUCT_DEFINITION_FORMATION_WITH_SPECIFIED_SOURCE ( 'ANY', '', #171, .NOT_KNOWN. ) ;
#140 = CARTESIAN_POINT ( 'NONE',  ( 0.0000000000000000000, 0.0000000000000000000, 0.0000000000000000000 ) ) ;
#141 = ORIENTED_EDGE ( 'NONE', *, *, #237, .T. ) ;
#142 = CARTESIAN_POINT ( 'NONE',  ( 1.815570296198429345E-13, 1.324999999999992850, 52.00000000000000000 ) ) ;
#143 = CARTESIAN_POINT ( 'NONE',  ( 2.112515728529169128E-16, -1.724999999999993427, -2.112515728529183919E-16 ) ) ;
#144 = CC_DESIGN_APPROVAL ( #79, ( #139 ) ) ;
#145 = CARTESIAN_POINT ( 'NONE',  ( 3.618866526551318051E-15, -1.269327508349512342E-16, 1.036484567822548497 ) ) ;
#146 = EDGE_LOOP ( 'NONE', ( #178, #73 ) ) ;
#147 = EDGE_CURVE ( 'NONE', #58, #239, #41, .T. ) ;
#148 = LINE ( 'NONE', #337, #302 ) ;
#149 = CONICAL_SURFACE ( 'NONE', #193, 1.324999999999999067, 0.7853981633974597143 ) ;
#150 = VERTEX_POINT ( 'NONE', #120 ) ;
#151 = LINE ( 'NONE', #307, #180 ) ;
#152 = VERTEX_POINT ( 'NONE', #75 ) ;
#153 = EDGE_CURVE ( 'NONE', #277, #150, #151, .T. ) ;
#154 = ORIENTED_EDGE ( 'NONE', *, *, #169, .T. ) ;
#155 = CLOSED_SHELL ( 'NONE', ( #303, #84, #162, #10, #110, #320 ) ) ;
#156 = MANIFOLD_SOLID_BREP ( 'Corps-Déplacer/Copier1[2]', #272 ) ;
#157 = APPLICATION_CONTEXT ( 'configuration controlled 3d designs of mechanical parts and assemblies' ) ;
#158 = ORIENTED_EDGE ( 'NONE', *, *, #147, .F. ) ;
#159 = MANIFOLD_SOLID_BREP ( 'Corps-Déplacer/Copier1[1]', #155 ) ;
#160 = DIRECTION ( 'NONE',  ( 1.000000000000000000, 0.0000000000000000000, 0.0000000000000000000 ) ) ;
#161 = VERTEX_POINT ( 'NONE', #124 ) ;
#162 = ADVANCED_FACE ( 'NONE', ( #172 ), #286, .F. ) ;
#163 = CARTESIAN_POINT ( 'NONE',  ( 1.801604370843057064E-13, 1.724999999999992539, 51.60000000000000853 ) ) ;
#164 = APPROVAL_DATE_TIME ( #191, #66 ) ;
#165 = CIRCLE ( 'NONE', #229, 1.724999999999998979 ) ;
#166 = FACE_OUTER_BOUND ( 'NONE', #305, .T. ) ;
#167 = APPROVAL_STATUS ( 'not_yet_approved' ) ;
#168 = DIRECTION ( 'NONE',  ( 0.0000000000000000000, 1.000000000000000000, 0.0000000000000000000 ) ) ;
#169 = EDGE_CURVE ( 'NONE', #239, #152, #80, .T. ) ;
#170 = CARTESIAN_POINT ( 'NONE',  ( 1.801604370843057064E-13, -6.319177483600344531E-15, 51.60000000000000853 ) ) ;
#171 = PRODUCT ( '4020', '4020', '', ( #96 ) ) ;
#172 = FACE_OUTER_BOUND ( 'NONE', #125, .T. ) ;
#173 = CARTESIAN_POINT ( 'NONE',  ( 3.618866526551318051E-15, -1.269327508349512342E-16, 1.036484567822548497 ) ) ;
#174 = DIRECTION ( 'NONE',  ( 0.0000000000000000000, 0.0000000000000000000, 1.000000000000000000 ) ) ;
#175 = CIRCLE ( 'NONE', #324, 1.724999999999992761 ) ;
#176 = PERSON_AND_ORGANIZATION_ROLE ( 'creator' ) ;
#177 = DIRECTION ( 'NONE',  ( -3.491481338843133355E-15, 1.224646799147353454E-16, -1.000000000000000000 ) ) ;
#178 = ORIENTED_EDGE ( 'NONE', *, *, #116, .F. ) ;
#179 = CARTESIAN_POINT ( 'NONE',  ( 1.801604370843057064E-13, -6.319177483600344531E-15, 51.60000000000000853 ) ) ;
#180 = VECTOR ( 'NONE', #47, 1000.000000000000000 ) ;
#181 = CC_DESIGN_APPROVAL ( #66, ( #56 ) ) ;
#182 = ADVANCED_FACE ( 'NONE', ( #95 ), #290, .T. ) ;
#183 = ORIENTED_EDGE ( 'NONE', *, *, #71, .F. ) ;
#184 = EDGE_CURVE ( 'NONE', #150, #152, #250, .T. ) ;
#185 = CARTESIAN_POINT ( 'NONE',  ( 3.618866526551318051E-15, -1.269327508349512342E-16, 1.036484567822548497 ) ) ;
#186 = ORIENTED_EDGE ( 'NONE', *, *, #130, .F. ) ;
#187 = APPROVAL_PERSON_ORGANIZATION ( #62, #66, #293 ) ;
#188 = UNCERTAINTY_MEASURE_WITH_UNIT (LENGTH_MEASURE( 1.000000000000000082E-05 ), #244, 'distance_accuracy_value', 'NONE');
#189 = ORIENTED_EDGE ( 'NONE', *, *, #24, .F. ) ;
#190 = LINE ( 'NONE', #301, #209 ) ;
#191 = DATE_AND_TIME ( #43, #216 ) ;
#192 = DIRECTION ( 'NONE',  ( 4.275831445896959482E-31, 1.000000000000000000, 1.224646799147353454E-16 ) ) ;
#193 = AXIS2_PLACEMENT_3D ( 'NONE', #118, #254, #197 ) ;
#194 = CIRCLE ( 'NONE', #99, 1.724999999999994316 ) ;
#195 = EDGE_CURVE ( 'NONE', #269, #117, #148, .T. ) ;
#196 = AXIS2_PLACEMENT_3D ( 'NONE', #317, #177, #192 ) ;
#197 = DIRECTION ( 'NONE',  ( 0.0000000000000000000, 1.000000000000000000, 0.0000000000000000000 ) ) ;
#198 = ORIENTED_EDGE ( 'NONE', *, *, #243, .F. ) ;
#199 = CARTESIAN_POINT ( 'NONE',  ( 5.237222008264700033E-14, -1.836970198721029983E-15, 15.00000000000000000 ) ) ;
#200 = ADVANCED_FACE ( 'NONE', ( #98 ), #44, .T. ) ;
#201 = VECTOR ( 'NONE', #240, 1000.000000000000000 ) ;
#202 = CARTESIAN_POINT ( 'NONE',  ( 3.618866526551318051E-15, -1.269327508349512342E-16, 1.036484567822548497 ) ) ;
#203 = DIRECTION ( 'NONE',  ( 0.0000000000000000000, 1.000000000000000000, 0.0000000000000000000 ) ) ;
#204 = ORIENTED_EDGE ( 'NONE', *, *, #184, .F. ) ;
#205 = DIRECTION ( 'NONE',  ( -3.491481338843133355E-15, 1.224646799147353454E-16, -1.000000000000000000 ) ) ;
#206 = DIRECTION ( 'NONE',  ( -4.275831445896959482E-31, -1.000000000000000000, -1.224646799147353454E-16 ) ) ;
#207 = APPROVAL_ROLE ( '' ) ;
#208 = DIRECTION ( 'NONE',  ( 4.275831445896959482E-31, 1.000000000000000000, 1.224646799147353454E-16 ) ) ;
#209 = VECTOR ( 'NONE', #70, 1000.000000000000000 ) ;
#210 = APPROVAL_PERSON_ORGANIZATION ( #52, #79, #207 ) ;
#211 = PERSON_AND_ORGANIZATION ( #25, #100 ) ;
#212 = ORIENTED_EDGE ( 'NONE', *, *, #243, .T. ) ;
#213 =( NAMED_UNIT ( * ) PLANE_ANGLE_UNIT ( ) SI_UNIT ( $, .RADIAN. ) );
#214 = ORIENTED_EDGE ( 'NONE', *, *, #102, .T. ) ;
#215 = DIRECTION ( 'NONE',  ( -3.491481338843133355E-15, 1.224646799147353454E-16, -1.000000000000000000 ) ) ;
#216 = LOCAL_TIME ( 9, 22, 8.000000000000000000, #16 ) ;
#217 = DIRECTION ( 'NONE',  ( -3.491481338843133355E-15, 1.224646799147353454E-16, -1.000000000000000000 ) ) ;
#218 = ORIENTED_EDGE ( 'NONE', *, *, #71, .T. ) ;
#219 = APPROVAL_DATE_TIME ( #255, #311 ) ;
#220 = DIRECTION ( 'NONE',  ( 3.491481338843133355E-15, -1.224646799147353454E-16, 1.000000000000000000 ) ) ;
#221 = AXIS2_PLACEMENT_3D ( 'NONE', #127, #226, #336 ) ;
#222 = PERSON_AND_ORGANIZATION_ROLE ( 'creator' ) ;
#223 = AXIS2_PLACEMENT_3D ( 'NONE', #74, #53, #203 ) ;
#224 = CARTESIAN_POINT ( 'NONE',  ( 1.815570296198429345E-13, -6.368163355566237959E-15, 52.00000000000000000 ) ) ;
#225 = ORIENTED_EDGE ( 'NONE', *, *, #153, .T. ) ;
#226 = DIRECTION ( 'NONE',  ( -3.491481338843133355E-15, 1.224646799147353454E-16, -1.000000000000000000 ) ) ;
#227 = PRODUCT_RELATED_PRODUCT_CATEGORY ( 'detail', '', ( #171 ) ) ;
#228 = DIRECTION ( 'NONE',  ( -4.465924508724043685E-31, -1.000000000000000000, -1.257045997084648035E-16 ) ) ;
#229 = AXIS2_PLACEMENT_3D ( 'NONE', #170, #284, #19 ) ;
#230 = EDGE_LOOP ( 'NONE', ( #133, #21, #225, #189 ) ) ;
#231 = CC_DESIGN_PERSON_AND_ORGANIZATION_ASSIGNMENT ( #129, #297, ( #56 ) ) ;
#232 = AXIS2_PLACEMENT_3D ( 'NONE', #294, #8, #135 ) ;
#233 = APPROVAL_PERSON_ORGANIZATION ( #113, #311, #252 ) ;
#234 = CARTESIAN_POINT ( 'NONE',  ( 1.810454919889442846E-13, -1.325000000000005507, 52.00000000000000000 ) ) ;
#235 = DATE_TIME_ROLE ( 'classification_date' ) ;
#236 = EDGE_LOOP ( 'NONE', ( #60, #218, #39, #186 ) ) ;
#237 = EDGE_CURVE ( 'NONE', #111, #117, #175, .T. ) ;
#238 = FACE_OUTER_BOUND ( 'NONE', #253, .T. ) ;
#239 = VERTEX_POINT ( 'NONE', #76 ) ;
#240 = DIRECTION ( 'NONE',  ( -2.468850131082236945E-15, 0.7071067811865556774, -0.7071067811865393571 ) ) ;
#241 = CIRCLE ( 'NONE', #59, 1.724999999999992761 ) ;
#242 = LOCAL_TIME ( 9, 22, 8.000000000000000000, #335 ) ;
#243 = EDGE_CURVE ( 'NONE', #277, #239, #165, .T. ) ;
#244 =( LENGTH_UNIT ( ) NAMED_UNIT ( * ) SI_UNIT ( .MILLI., .METRE. ) );
#245 = LINE ( 'NONE', #326, #251 ) ;
#246 = VERTEX_POINT ( 'NONE', #142 ) ;
#247 = CC_DESIGN_DATE_AND_TIME_ASSIGNMENT ( #85, #235, ( #56 ) ) ;
#248 = PLANE ( 'NONE',  #3 ) ;
#249 = DIRECTION ( 'NONE',  ( -3.491481338843133355E-15, 1.224646799147353454E-16, -1.000000000000000000 ) ) ;
#250 = CIRCLE ( 'NONE', #295, 1.724999999999994316 ) ;
#251 = VECTOR ( 'NONE', #300, 999.9999999999998863 ) ;
#252 = APPROVAL_ROLE ( '' ) ;
#253 = EDGE_LOOP ( 'NONE', ( #212, #154, #204, #109 ) ) ;
#254 = DIRECTION ( 'NONE',  ( -3.491481338843133355E-15, 1.224646799147353454E-16, -1.000000000000000000 ) ) ;
#255 = DATE_AND_TIME ( #45, #132 ) ;
#256 = CARTESIAN_POINT ( 'NONE',  ( 5.237222008264700033E-14, 1.724999999999992539, 15.00000000000000000 ) ) ;
#257 = COORDINATED_UNIVERSAL_TIME_OFFSET ( 1, 0, .AHEAD. ) ;
#258 = SHAPE_DEFINITION_REPRESENTATION ( #321, #22 ) ;
#259 = CIRCLE ( 'NONE', #12, 1.724999999999994316 ) ;
#260 = DIRECTION ( 'NONE',  ( 4.275831445896959482E-31, 1.000000000000000000, 1.224646799147353454E-16 ) ) ;
#261 = DATE_AND_TIME ( #82, #328 ) ;
#262 = DIRECTION ( 'NONE',  ( 3.491481338843133355E-15, -1.224646799147353454E-16, 1.000000000000000000 ) ) ;
#263 = DIRECTION ( 'NONE',  ( -3.491481338843133355E-15, 1.224646799147353454E-16, -1.000000000000000000 ) ) ;
#264 = DIRECTION ( 'NONE',  ( -3.491481338843133355E-15, 1.224646799147353454E-16, -1.000000000000000000 ) ) ;
#265 = CIRCLE ( 'NONE', #137, 1.724999999999998979 ) ;
#266 = CC_DESIGN_PERSON_AND_ORGANIZATION_ASSIGNMENT ( #91, #222, ( #35 ) ) ;
#267 = EDGE_LOOP ( 'NONE', ( #42, #183 ) ) ;
#268 = FACE_OUTER_BOUND ( 'NONE', #275, .T. ) ;
#269 = VERTEX_POINT ( 'NONE', #140 ) ;
#270 = PERSON_AND_ORGANIZATION_ROLE ( 'design_supplier' ) ;
#271 = EDGE_CURVE ( 'NONE', #269, #111, #245, .T. ) ;
#272 = CLOSED_SHELL ( 'NONE', ( #327, #1, #200, #182, #285 ) ) ;
#273 = LOCAL_TIME ( 9, 22, 8.000000000000000000, #33 ) ;
#274 = ORIENTED_EDGE ( 'NONE', *, *, #24, .T. ) ;
#275 = EDGE_LOOP ( 'NONE', ( #101, #138, #104, #304 ) ) ;
#276 = PERSON_AND_ORGANIZATION ( #25, #100 ) ;
#277 = VERTEX_POINT ( 'NONE', #163 ) ;
#278 = AXIS2_PLACEMENT_3D ( 'NONE', #145, #262, #228 ) ;
#279 = PERSON_AND_ORGANIZATION_ROLE ( 'design_owner' ) ;
#280 = CARTESIAN_POINT ( 'NONE',  ( 5.237222008264700033E-14, 1.293542812545846029E-32, 15.00000000000000000 ) ) ;
#281 = APPLICATION_PROTOCOL_DEFINITION ( 'international standard', 'config_control_design', 1994, #112 ) ;
#282 = DIRECTION ( 'NONE',  ( -2.382254525458687493E-15, -0.7071067811865554553, -0.7071067811865395791 ) ) ;
#283 = DATE_TIME_ROLE ( 'creation_date' ) ;
#284 = DIRECTION ( 'NONE',  ( -3.491481338843133355E-15, 1.224646799147353454E-16, -1.000000000000000000 ) ) ;
#285 = ADVANCED_FACE ( 'NONE', ( #332 ), #248, .T. ) ;
#286 = PLANE ( 'NONE',  #131 ) ;
#287 = ORIENTED_EDGE ( 'NONE', *, *, #184, .T. ) ;
#288 = AXIS2_PLACEMENT_3D ( 'NONE', #173, #310, #77 ) ;
#289 = CARTESIAN_POINT ( 'NONE',  ( 0.0000000000000000000, 0.0000000000000000000, 0.0000000000000000000 ) ) ;
#290 = CYLINDRICAL_SURFACE ( 'NONE', #221, 1.724999999999993427 ) ;
#291 = PERSON_AND_ORGANIZATION ( #25, #100 ) ;
#292 = EDGE_CURVE ( 'NONE', #58, #246, #54, .T. ) ;
#293 = APPROVAL_ROLE ( '' ) ;
#294 = CARTESIAN_POINT ( 'NONE',  ( 5.237222008264700033E-14, -1.836970198721029983E-15, 15.00000000000000000 ) ) ;
#295 = AXIS2_PLACEMENT_3D ( 'NONE', #199, #306, #168 ) ;
#296 = CARTESIAN_POINT ( 'NONE',  ( 1.815570296198429345E-13, 1.324999999999992850, 52.00000000000000000 ) ) ;
#297 = PERSON_AND_ORGANIZATION_ROLE ( 'classification_officer' ) ;
#298 = CC_DESIGN_PERSON_AND_ORGANIZATION_ASSIGNMENT ( #291, #270, ( #139 ) ) ;
#299 = DIRECTION ( 'NONE',  ( -3.491481338843133355E-15, 1.224646799147353454E-16, -1.000000000000000000 ) ) ;
#300 = DIRECTION ( 'NONE',  ( 1.903218546456022717E-15, 0.8571673007021097801, 0.5150380749100585964 ) ) ;
#301 = CARTESIAN_POINT ( 'NONE',  ( 7.375809244172227278E-31, 1.724999999999993427, 2.112515728529176770E-16 ) ) ;
#302 = VECTOR ( 'NONE', #97, 1000.000000000000000 ) ;
#303 = ADVANCED_FACE ( 'NONE', ( #93 ), #23, .T. ) ;
#304 = ORIENTED_EDGE ( 'NONE', *, *, #123, .F. ) ;
#305 = EDGE_LOOP ( 'NONE', ( #158, #323, #214, #40 ) ) ;
#306 = DIRECTION ( 'NONE',  ( -3.491481338843133355E-15, 1.224646799147353454E-16, -1.000000000000000000 ) ) ;
#307 = CARTESIAN_POINT ( 'NONE',  ( 7.375809244172240415E-31, 1.724999999999996536, 2.112515728529180467E-16 ) ) ;
#308 = CARTESIAN_POINT ( 'NONE',  ( 0.0000000000000000000, 0.0000000000000000000, 0.0000000000000000000 ) ) ;
#309 = DIRECTION ( 'NONE',  ( 4.465924508724043685E-31, 1.000000000000000000, 1.257045997084648035E-16 ) ) ;
#310 = DIRECTION ( 'NONE',  ( 3.491481338843133355E-15, -1.224646799147353454E-16, 1.000000000000000000 ) ) ;
#311 = APPROVAL ( #167, 'UNSPECIFIED' ) ;
#312 = APPLICATION_PROTOCOL_DEFINITION ( 'international standard', 'config_control_design', 1994, #157 ) ;
#313 = FACE_OUTER_BOUND ( 'NONE', #230, .T. ) ;
#314 = CALENDAR_DATE ( 2021, 3, 9 ) ;
#315 = APPROVAL_DATE_TIME ( #261, #79 ) ;
#316 = ORIENTED_EDGE ( 'NONE', *, *, #130, .T. ) ;
#317 = CARTESIAN_POINT ( 'NONE',  ( 0.0000000000000000000, 0.0000000000000000000, 0.0000000000000000000 ) ) ;
#318 = AXIS2_PLACEMENT_3D ( 'NONE', #36, #105, #86 ) ;
#319 = CC_DESIGN_APPROVAL ( #311, ( #35 ) ) ;
#320 = ADVANCED_FACE ( 'NONE', ( #57 ), #106, .F. ) ;
#321 = PRODUCT_DEFINITION_SHAPE ( 'NONE', 'NONE',  #35 ) ;
#322 = ORIENTED_EDGE ( 'NONE', *, *, #195, .T. ) ;
#323 = ORIENTED_EDGE ( 'NONE', *, *, #292, .T. ) ;
#324 = AXIS2_PLACEMENT_3D ( 'NONE', #202, #263, #309 ) ;
#325 = EDGE_CURVE ( 'NONE', #331, #161, #259, .T. ) ;
#326 = CARTESIAN_POINT ( 'NONE',  ( 3.830118099404236024E-15, 1.724999999999992539, 1.036484567822548719 ) ) ;
#327 = ADVANCED_FACE ( 'NONE', ( #268 ), #29, .T. ) ;
#328 = LOCAL_TIME ( 9, 22, 8.000000000000000000, #49 ) ;
#329 = CARTESIAN_POINT ( 'NONE',  ( 3.618866526551317262E-15, -1.724999999999992983, 1.036484567822548275 ) ) ;
#330 = EDGE_LOOP ( 'NONE', ( #64, #322, #316 ) ) ;
#331 = VERTEX_POINT ( 'NONE', #256 ) ;
#332 = FACE_OUTER_BOUND ( 'NONE', #267, .T. ) ;
#333 = DIRECTION ( 'NONE',  ( 0.0000000000000000000, 1.000000000000000000, 0.0000000000000000000 ) ) ;
#334 = VECTOR ( 'NONE', #4, 1000.000000000000000 ) ;
#335 = COORDINATED_UNIVERSAL_TIME_OFFSET ( 1, 0, .AHEAD. ) ;
#336 = DIRECTION ( 'NONE',  ( 4.275831445896959482E-31, 1.000000000000000000, 1.224646799147353454E-16 ) ) ;
#337 = CARTESIAN_POINT ( 'NONE',  ( 3.618866526551317262E-15, -1.724999999999992983, 1.036484567822548275 ) ) ;
ENDSEC;
END-ISO-10303-21;
