ISO-10303-21;
HEADER;
FILE_DESCRIPTION (( 'STEP AP203' ),
    '1' );
FILE_NAME ('40173.step',
    '2021-09-02T13:22:24',
    ( '' ),
    ( '' ),
    'SwSTEP 2.0',
    'SolidWorks 2019',
    '' );
FILE_SCHEMA (( 'CONFIG_CONTROL_DESIGN' ));
ENDSEC;

DATA;
#1 = FACE_OUTER_BOUND ( 'NONE', #47, .T. ) ;
#2 = CARTESIAN_POINT ( 'NONE',  ( 2.255496944892664526E-13, -7.911218322491902246E-15, 64.60000000000000853 ) ) ;
#3 = CARTESIAN_POINT ( 'NONE',  ( 1.256933281983528008E-13, -4.408728476930470856E-15, 36.00000000000000000 ) ) ;
#4 = CONICAL_SURFACE ( 'NONE', #180, 1.549999999999982947, 1.029744258676649649 ) ;
#5 = CARTESIAN_POINT ( 'NONE',  ( 1.256933281983528008E-13, 1.162313831562923635E-32, 36.00000000000000000 ) ) ;
#6 = EDGE_CURVE ( 'NONE', #37, #233, #328, .T. ) ;
#7 = DIRECTION ( 'NONE',  ( 4.275831445896958607E-31, 1.000000000000000000, 1.224646799147353207E-16 ) ) ;
#8 = DIRECTION ( 'NONE',  ( 4.275831445896958607E-31, 1.000000000000000000, 1.224646799147353207E-16 ) ) ;
#9 = CIRCLE ( 'NONE', #141, 1.149999999999990585 ) ;
#10 = CC_DESIGN_APPROVAL ( #193, ( #337 ) ) ;
#11 = ADVANCED_FACE ( 'NONE', ( #69 ), #253, .T. ) ;
#12 = LINE ( 'NONE', #18, #200 ) ;
#13 = UNCERTAINTY_MEASURE_WITH_UNIT (LENGTH_MEASURE( 1.000000000000000082E-05 ), #310, 'distance_accuracy_value', 'NONE');
#14 = ORIENTED_EDGE ( 'NONE', *, *, #213, .F. ) ;
#15 = DIRECTION ( 'NONE',  ( 4.970141791967115188E-31, 1.000000000000000000, 1.398970545142601826E-16 ) ) ;
#16 = ORIENTED_EDGE ( 'NONE', *, *, #264, .F. ) ;
#17 = CARTESIAN_POINT ( 'NONE',  ( 0.0000000000000000000, 0.0000000000000000000, 0.0000000000000000000 ) ) ;
#18 = CARTESIAN_POINT ( 'NONE',  ( 1.898202538678372560E-16, -1.549999999999984945, -1.898202538678385626E-16 ) ) ;
#19 = CIRCLE ( 'NONE', #124, 1.549999999999982947 ) ;
#20 = DIRECTION ( 'NONE',  ( -3.491481338843133355E-15, 1.224646799147353207E-16, -1.000000000000000000 ) ) ;
#21 = CARTESIAN_POINT ( 'NONE',  ( 0.0000000000000000000, 0.0000000000000000000, 0.0000000000000000000 ) ) ;
#22 = ADVANCED_FACE ( 'NONE', ( #223 ), #143, .F. ) ;
#23 = LOCAL_TIME ( 15, 22, 24.00000000000000000, #57 ) ;
#24 = ORIENTED_EDGE ( 'NONE', *, *, #103, .T. ) ;
#25 = ORIENTED_EDGE ( 'NONE', *, *, #234, .T. ) ;
#26 = DIRECTION ( 'NONE',  ( -3.491481338843133355E-15, 1.224646799147353207E-16, -1.000000000000000000 ) ) ;
#27 = AXIS2_PLACEMENT_3D ( 'NONE', #149, #74, #7 ) ;
#28 = PERSON_AND_ORGANIZATION ( #112, #269 ) ;
#29 = PLANE ( 'NONE',  #175 ) ;
#30 = CC_DESIGN_PERSON_AND_ORGANIZATION_ASSIGNMENT ( #91, #255, ( #178 ) ) ;
#31 = FACE_OUTER_BOUND ( 'NONE', #81, .T. ) ;
#32 = LINE ( 'NONE', #192, #120 ) ;
#33 = CIRCLE ( 'NONE', #132, 1.149999999999990585 ) ;
#34 = VECTOR ( 'NONE', #90, 999.9999999999998863 ) ;
#35 = ORIENTED_EDGE ( 'NONE', *, *, #43, .F. ) ;
#36 = CARTESIAN_POINT ( 'NONE',  ( 6.466235192294392013E-14, -1.549999999999991607, 36.00000000000000000 ) ) ;
#37 = VERTEX_POINT ( 'NONE', #221 ) ;
#38 = CARTESIAN_POINT ( 'NONE',  ( 3.251735139799713293E-15, -1.140555152429988323E-16, 0.9313339594927184661 ) ) ;
#39 = CC_DESIGN_PERSON_AND_ORGANIZATION_ASSIGNMENT ( #281, #70, ( #254 ) ) ;
#40 = CYLINDRICAL_SURFACE ( 'NONE', #321, 1.549999999999984945 ) ;
#41 = AXIS2_PLACEMENT_3D ( 'NONE', #218, #245, #144 ) ;
#42 = CARTESIAN_POINT ( 'NONE',  ( 2.269462870248037060E-13, -7.960204194457797252E-15, 65.00000000000000000 ) ) ;
#43 = EDGE_CURVE ( 'NONE', #118, #142, #309, .T. ) ;
#44 = ORIENTED_EDGE ( 'NONE', *, *, #307, .F. ) ;
#45 = DIRECTION ( 'NONE',  ( 0.0000000000000000000, 1.000000000000000000, 0.0000000000000000000 ) ) ;
#46 = DATE_AND_TIME ( #319, #292 ) ;
#47 = EDGE_LOOP ( 'NONE', ( #251, #295, #25, #325 ) ) ;
#48 = CARTESIAN_POINT ( 'NONE',  ( 2.264133180749199629E-13, -1.149999999999998579, 65.00000000000000000 ) ) ;
#49 = EDGE_LOOP ( 'NONE', ( #214, #278 ) ) ;
#50 = APPLICATION_PROTOCOL_DEFINITION ( 'international standard', 'config_control_design', 1994, #53 ) ;
#51 = DIRECTION ( 'NONE',  ( -4.970141791967115188E-31, -1.000000000000000000, -1.398970545142601826E-16 ) ) ;
#52 = VERTEX_POINT ( 'NONE', #89 ) ;
#53 = APPLICATION_CONTEXT ( 'configuration controlled 3d designs of mechanical parts and assemblies' ) ;
#54 = DIRECTION ( 'NONE',  ( -3.491481338843133355E-15, 1.224646799147353207E-16, -1.000000000000000000 ) ) ;
#55 = ORIENTED_EDGE ( 'NONE', *, *, #166, .T. ) ;
#56 = ORIENTED_EDGE ( 'NONE', *, *, #199, .F. ) ;
#57 = COORDINATED_UNIVERSAL_TIME_OFFSET ( 1, 0, .AHEAD. ) ;
#58 = EDGE_LOOP ( 'NONE', ( #135, #308, #75, #105 ) ) ;
#59 = DIRECTION ( 'NONE',  ( 0.0000000000000000000, 1.000000000000000000, 0.0000000000000000000 ) ) ;
#60 = CARTESIAN_POINT ( 'NONE',  ( 3.441555393667551510E-15, 1.549999999999982725, 0.9313339594927186882 ) ) ;
#61 = AXIS2_PLACEMENT_3D ( 'NONE', #21, #115, #336 ) ;
#62 = ADVANCED_FACE ( 'NONE', ( #31 ), #198, .T. ) ;
#63 = APPLICATION_PROTOCOL_DEFINITION ( 'international standard', 'config_control_design', 1994, #117 ) ;
#64 = APPROVAL_ROLE ( '' ) ;
#65 = AXIS2_PLACEMENT_3D ( 'NONE', #2, #145, #127 ) ;
#66 = CARTESIAN_POINT ( 'NONE',  ( 3.251735139799713293E-15, -1.140555152429988323E-16, 0.9313339594927184661 ) ) ;
#67 = CC_DESIGN_PERSON_AND_ORGANIZATION_ASSIGNMENT ( #169, #315, ( #130 ) ) ;
#68 = PERSON_AND_ORGANIZATION ( #112, #269 ) ;
#69 = FACE_OUTER_BOUND ( 'NONE', #257, .T. ) ;
#70 = PERSON_AND_ORGANIZATION_ROLE ( 'design_owner' ) ;
#71 = DATE_AND_TIME ( #311, #284 ) ;
#72 = DIRECTION ( 'NONE',  ( -3.491481338843133355E-15, 1.224646799147353207E-16, -1.000000000000000000 ) ) ;
#73 = EDGE_CURVE ( 'NONE', #176, #203, #32, .T. ) ;
#74 = DIRECTION ( 'NONE',  ( -3.491481338843133355E-15, 1.224646799147353207E-16, -1.000000000000000000 ) ) ;
#75 = ORIENTED_EDGE ( 'NONE', *, *, #239, .T. ) ;
#76 = ADVANCED_FACE ( 'NONE', ( #95 ), #29, .F. ) ;
#77 = AXIS2_PLACEMENT_3D ( 'NONE', #82, #259, #113 ) ;
#78 = ADVANCED_BREP_SHAPE_REPRESENTATION ( '40173', ( #247, #240, #61 ), #260 ) ;
#79 = DIRECTION ( 'NONE',  ( -2.468850131082257455E-15, 0.7071067811865497932, -0.7071067811865453523 ) ) ;
#80 = ADVANCED_FACE ( 'NONE', ( #97 ), #287, .T. ) ;
#81 = EDGE_LOOP ( 'NONE', ( #195, #119, #174, #289 ) ) ;
#82 = CARTESIAN_POINT ( 'NONE',  ( 2.269462870248037060E-13, -7.960204194457797252E-15, 65.00000000000000000 ) ) ;
#83 =( NAMED_UNIT ( * ) PLANE_ANGLE_UNIT ( ) SI_UNIT ( $, .RADIAN. ) );
#84 = DIRECTION ( 'NONE',  ( -3.491481338843133355E-15, 1.224646799147353207E-16, -1.000000000000000000 ) ) ;
#85 = CARTESIAN_POINT ( 'NONE',  ( 6.627538741140221994E-31, 1.549999999999984945, 1.898202538678379216E-16 ) ) ;
#86 = COORDINATED_UNIVERSAL_TIME_OFFSET ( 1, 0, .AHEAD. ) ;
#87 = ADVANCED_FACE ( 'NONE', ( #173 ), #4, .T. ) ;
#88 = CARTESIAN_POINT ( 'NONE',  ( 3.251735139799713293E-15, -1.140555152429988323E-16, 0.9313339594927184661 ) ) ;
#89 = CARTESIAN_POINT ( 'NONE',  ( 1.758113315976774523E-13, -1.549999999999991385, 36.00000000000000000 ) ) ;
#90 = DIRECTION ( 'NONE',  ( 1.903218546456022717E-15, 0.8571673007021097801, 0.5150380749100585964 ) ) ;
#91 = PERSON_AND_ORGANIZATION ( #112, #269 ) ;
#92 = DIRECTION ( 'NONE',  ( 3.491481338843133355E-15, -1.224646799147353207E-16, 1.000000000000000000 ) ) ;
#93 = EDGE_CURVE ( 'NONE', #142, #118, #293, .T. ) ;
#94 = COORDINATED_UNIVERSAL_TIME_OFFSET ( 1, 0, .AHEAD. ) ;
#95 = FACE_OUTER_BOUND ( 'NONE', #49, .T. ) ;
#96 = COORDINATED_UNIVERSAL_TIME_OFFSET ( 1, 0, .AHEAD. ) ;
#97 = FACE_OUTER_BOUND ( 'NONE', #179, .T. ) ;
#98 = CC_DESIGN_DATE_AND_TIME_ASSIGNMENT ( #246, #256, ( #130 ) ) ;
#99 = ORIENTED_EDGE ( 'NONE', *, *, #333, .F. ) ;
#100 = CC_DESIGN_PERSON_AND_ORGANIZATION_ASSIGNMENT ( #28, #146, ( #337 ) ) ;
#101 = ORIENTED_EDGE ( 'NONE', *, *, #209, .T. ) ;
#102 = DIRECTION ( 'NONE',  ( -3.491481338843133355E-15, 1.224646799147353207E-16, -1.000000000000000000 ) ) ;
#103 = EDGE_CURVE ( 'NONE', #329, #37, #320, .T. ) ;
#104 = CARTESIAN_POINT ( 'NONE',  ( 1.898202538678377491E-16, -1.549999999999988942, -1.898202538678390310E-16 ) ) ;
#105 = ORIENTED_EDGE ( 'NONE', *, *, #166, .F. ) ;
#106 = DIRECTION ( 'NONE',  ( 0.0000000000000000000, 1.000000000000000000, 0.0000000000000000000 ) ) ;
#107 = AXIS2_PLACEMENT_3D ( 'NONE', #125, #26, #8 ) ;
#108 = VECTOR ( 'NONE', #79, 1000.000000000000114 ) ;
#109 = APPROVAL_PERSON_ORGANIZATION ( #194, #323, #167 ) ;
#110 = AXIS2_PLACEMENT_3D ( 'NONE', #301, #111, #59 ) ;
#111 = DIRECTION ( 'NONE',  ( -3.491481338843133355E-15, 1.224646799147353207E-16, -1.000000000000000000 ) ) ;
#112 = PERSON ( 'UNSPECIFIED', 'UNSPECIFIED', 'UNSPECIFIED', ('UNSPECIFIED'), ('UNSPECIFIED'), ('UNSPECIFIED') ) ;
#113 = DIRECTION ( 'NONE',  ( 0.0000000000000000000, 1.000000000000000000, 0.0000000000000000000 ) ) ;
#114 = EDGE_LOOP ( 'NONE', ( #101, #24, #14, #290 ) ) ;
#115 = DIRECTION ( 'NONE',  ( 0.0000000000000000000, 0.0000000000000000000, 1.000000000000000000 ) ) ;
#116 = VECTOR ( 'NONE', #160, 1000.000000000000114 ) ;
#117 = APPLICATION_CONTEXT ( 'configuration controlled 3d designs of mechanical parts and assemblies' ) ;
#118 = VERTEX_POINT ( 'NONE', #238 ) ;
#119 = ORIENTED_EDGE ( 'NONE', *, *, #199, .T. ) ;
#120 = VECTOR ( 'NONE', #316, 1000.000000000000000 ) ;
#121 = CARTESIAN_POINT ( 'NONE',  ( 2.269462870248037060E-13, -7.960204194457797252E-15, 65.00000000000000000 ) ) ;
#122 = PERSON_AND_ORGANIZATION_ROLE ( 'creator' ) ;
#123 = LOCAL_TIME ( 15, 22, 24.00000000000000000, #288 ) ;
#124 = AXIS2_PLACEMENT_3D ( 'NONE', #38, #20, #232 ) ;
#125 = CARTESIAN_POINT ( 'NONE',  ( 0.0000000000000000000, 0.0000000000000000000, 0.0000000000000000000 ) ) ;
#126 = CARTESIAN_POINT ( 'NONE',  ( 1.256933281983528008E-13, -4.408728476930470856E-15, 36.00000000000000000 ) ) ;
#127 = DIRECTION ( 'NONE',  ( 0.0000000000000000000, 1.000000000000000000, 0.0000000000000000000 ) ) ;
#128 = CLOSED_SHELL ( 'NONE', ( #220, #276, #87, #153, #80 ) ) ;
#129 = AXIS2_PLACEMENT_3D ( 'NONE', #17, #181, #334 ) ;
#130 = PRODUCT_DEFINITION ( 'UNKNOWN', '', #337, #296 ) ;
#131 = CC_DESIGN_SECURITY_CLASSIFICATION ( #178, ( #337 ) ) ;
#132 = AXIS2_PLACEMENT_3D ( 'NONE', #42, #54, #299 ) ;
#133 = CALENDAR_DATE ( 2021, 2, 9 ) ;
#134 = CARTESIAN_POINT ( 'NONE',  ( 0.0000000000000000000, 0.0000000000000000000, 0.0000000000000000000 ) ) ;
#135 = ORIENTED_EDGE ( 'NONE', *, *, #172, .F. ) ;
#136 = CC_DESIGN_PERSON_AND_ORGANIZATION_ASSIGNMENT ( #68, #122, ( #337 ) ) ;
#137 = APPROVAL_ROLE ( '' ) ;
#138 = LINE ( 'NONE', #85, #286 ) ;
#139 = DIRECTION ( 'NONE',  ( 0.0000000000000000000, 1.000000000000000000, 0.0000000000000000000 ) ) ;
#140 = CALENDAR_DATE ( 2021, 2, 9 ) ;
#141 = AXIS2_PLACEMENT_3D ( 'NONE', #271, #242, #45 ) ;
#142 = VERTEX_POINT ( 'NONE', #36 ) ;
#143 = PLANE ( 'NONE',  #258 ) ;
#144 = DIRECTION ( 'NONE',  ( 0.0000000000000000000, 1.000000000000000000, 0.0000000000000000000 ) ) ;
#145 = DIRECTION ( 'NONE',  ( -3.491481338843133355E-15, 1.224646799147353207E-16, -1.000000000000000000 ) ) ;
#146 = PERSON_AND_ORGANIZATION_ROLE ( 'design_supplier' ) ;
#147 = AXIS2_PLACEMENT_3D ( 'NONE', #126, #164, #224 ) ;
#148 = DIRECTION ( 'NONE',  ( 0.0000000000000000000, 1.000000000000000000, 0.0000000000000000000 ) ) ;
#149 = CARTESIAN_POINT ( 'NONE',  ( 0.0000000000000000000, 0.0000000000000000000, 0.0000000000000000000 ) ) ;
#150 = CARTESIAN_POINT ( 'NONE',  ( 1.256933281983528008E-13, 1.549999999999982725, 36.00000000000000000 ) ) ;
#151 = ADVANCED_FACE ( 'NONE', ( #158 ), #277, .T. ) ;
#152 = EDGE_LOOP ( 'NONE', ( #226, #297, #202, #241 ) ) ;
#153 = ADVANCED_FACE ( 'NONE', ( #268 ), #183, .T. ) ;
#154 = CARTESIAN_POINT ( 'NONE',  ( 3.251735139799713293E-15, -1.140555152429988323E-16, 0.9313339594927184661 ) ) ;
#155 = PRODUCT_RELATED_PRODUCT_CATEGORY ( 'detail', '', ( #254 ) ) ;
#156 = CONICAL_SURFACE ( 'NONE', #230, 1.549999999999982947, 1.029744258676649649 ) ;
#157 = EDGE_LOOP ( 'NONE', ( #16, #273, #55 ) ) ;
#158 = FACE_OUTER_BOUND ( 'NONE', #114, .T. ) ;
#159 = CARTESIAN_POINT ( 'NONE',  ( 2.269462870248037060E-13, 1.149999999999982592, 65.00000000000000000 ) ) ;
#160 = DIRECTION ( 'NONE',  ( -2.382254525458708792E-15, -0.7071067811865495711, -0.7071067811865455743 ) ) ;
#161 = APPROVAL_DATE_TIME ( #330, #197 ) ;
#162 = DIRECTION ( 'NONE',  ( 3.491481338843133355E-15, -1.224646799147353207E-16, 1.000000000000000000 ) ) ;
#163 = VECTOR ( 'NONE', #212, 1000.000000000000000 ) ;
#164 = DIRECTION ( 'NONE',  ( -3.491481338843133355E-15, 1.224646799147353207E-16, -1.000000000000000000 ) ) ;
#165 = DIRECTION ( 'NONE',  ( 4.275831445896958607E-31, 1.000000000000000000, 1.224646799147353207E-16 ) ) ;
#166 = EDGE_CURVE ( 'NONE', #203, #201, #19, .T. ) ;
#167 = APPROVAL_ROLE ( '' ) ;
#168 = DIRECTION ( 'NONE',  ( 3.491481338843133355E-15, -1.224646799147353207E-16, 1.000000000000000000 ) ) ;
#169 = PERSON_AND_ORGANIZATION ( #112, #269 ) ;
#170 = APPROVAL_PERSON_ORGANIZATION ( #215, #193, #64 ) ;
#171 = CARTESIAN_POINT ( 'NONE',  ( 1.256933281983528008E-13, 1.162313831562923635E-32, 36.00000000000000000 ) ) ;
#172 = EDGE_CURVE ( 'NONE', #142, #203, #12, .T. ) ;
#173 = FACE_OUTER_BOUND ( 'NONE', #157, .T. ) ;
#174 = ORIENTED_EDGE ( 'NONE', *, *, #204, .F. ) ;
#175 = AXIS2_PLACEMENT_3D ( 'NONE', #171, #190, #322 ) ;
#176 = VERTEX_POINT ( 'NONE', #266 ) ;
#177 = CARTESIAN_POINT ( 'NONE',  ( 1.256933281983528008E-13, -4.408728476930470856E-15, 36.00000000000000000 ) ) ;
#178 = SECURITY_CLASSIFICATION ( '', '', #222 ) ;
#179 = EDGE_LOOP ( 'NONE', ( #35, #189 ) ) ;
#180 = AXIS2_PLACEMENT_3D ( 'NONE', #66, #168, #51 ) ;
#181 = DIRECTION ( 'NONE',  ( -3.491481338843133355E-15, 1.224646799147353207E-16, -1.000000000000000000 ) ) ;
#182 = EDGE_CURVE ( 'NONE', #201, #203, #303, .T. ) ;
#183 = CYLINDRICAL_SURFACE ( 'NONE', #129, 1.549999999999984945 ) ;
#184 = APPROVAL_STATUS ( 'not_yet_approved' ) ;
#185 = CARTESIAN_POINT ( 'NONE',  ( 3.251735139799712504E-15, -1.549999999999983169, 0.9313339594927182441 ) ) ;
#186 = ORIENTED_EDGE ( 'NONE', *, *, #6, .T. ) ;
#187 = CIRCLE ( 'NONE', #285, 1.549999999999987166 ) ;
#188 = LINE ( 'NONE', #249, #34 ) ;
#189 = ORIENTED_EDGE ( 'NONE', *, *, #93, .F. ) ;
#190 = DIRECTION ( 'NONE',  ( 3.491481338843133355E-15, -1.224646799147353207E-16, 1.000000000000000000 ) ) ;
#191 =( NAMED_UNIT ( * ) SI_UNIT ( $, .STERADIAN. ) SOLID_ANGLE_UNIT ( ) );
#192 = CARTESIAN_POINT ( 'NONE',  ( 3.251735139799712504E-15, -1.549999999999983169, 0.9313339594927182441 ) ) ;
#193 = APPROVAL ( #225, 'UNSPECIFIED' ) ;
#194 = PERSON_AND_ORGANIZATION ( #112, #269 ) ;
#195 = ORIENTED_EDGE ( 'NONE', *, *, #213, .T. ) ;
#196 = PRODUCT_DEFINITION_SHAPE ( 'NONE', 'NONE',  #130 ) ;
#197 = APPROVAL ( #184, 'UNSPECIFIED' ) ;
#198 = CYLINDRICAL_SURFACE ( 'NONE', #27, 1.549999999999988942 ) ;
#199 = EDGE_CURVE ( 'NONE', #37, #52, #235, .T. ) ;
#200 = VECTOR ( 'NONE', #228, 1000.000000000000000 ) ;
#201 = VERTEX_POINT ( 'NONE', #60 ) ;
#202 = ORIENTED_EDGE ( 'NONE', *, *, #182, .F. ) ;
#203 = VERTEX_POINT ( 'NONE', #185 ) ;
#204 = EDGE_CURVE ( 'NONE', #216, #52, #187, .T. ) ;
#205 = DIRECTION ( 'NONE',  ( 4.275831445896958607E-31, 1.000000000000000000, 1.224646799147353207E-16 ) ) ;
#206 = CARTESIAN_POINT ( 'NONE',  ( 2.270871214067056350E-13, -1.149999999999998579, 65.00000000000000000 ) ) ;
#207 = DATE_AND_TIME ( #261, #123 ) ;
#208 = AXIS2_PLACEMENT_3D ( 'NONE', #3, #72, #148 ) ;
#209 = EDGE_CURVE ( 'NONE', #217, #329, #33, .T. ) ;
#210 = CIRCLE ( 'NONE', #110, 1.549999999999990719 ) ;
#211 = DIRECTION ( 'NONE',  ( -3.491481338843133355E-15, 1.224646799147353207E-16, -1.000000000000000000 ) ) ;
#212 = DIRECTION ( 'NONE',  ( -3.491481338843133355E-15, 1.224646799147353207E-16, -1.000000000000000000 ) ) ;
#213 = EDGE_CURVE ( 'NONE', #233, #37, #210, .T. ) ;
#214 = ORIENTED_EDGE ( 'NONE', *, *, #204, .T. ) ;
#215 = PERSON_AND_ORGANIZATION ( #112, #269 ) ;
#216 = VERTEX_POINT ( 'NONE', #150 ) ;
#217 = VERTEX_POINT ( 'NONE', #159 ) ;
#218 = CARTESIAN_POINT ( 'NONE',  ( 1.256933281983528008E-13, -4.408728476930470856E-15, 36.00000000000000000 ) ) ;
#219 = APPROVAL_DATE_TIME ( #71, #193 ) ;
#220 = ADVANCED_FACE ( 'NONE', ( #267 ), #40, .T. ) ;
#221 = CARTESIAN_POINT ( 'NONE',  ( 1.758113315976773766E-13, -1.549999999999998490, 64.60000000000000853 ) ) ;
#222 = SECURITY_CLASSIFICATION_LEVEL ( 'unclassified' ) ;
#223 = FACE_OUTER_BOUND ( 'NONE', #265, .T. ) ;
#224 = DIRECTION ( 'NONE',  ( 0.0000000000000000000, 1.000000000000000000, 0.0000000000000000000 ) ) ;
#225 = APPROVAL_STATUS ( 'not_yet_approved' ) ;
#226 = ORIENTED_EDGE ( 'NONE', *, *, #43, .T. ) ;
#227 = CC_DESIGN_APPROVAL ( #197, ( #178 ) ) ;
#228 = DIRECTION ( 'NONE',  ( -3.491481338843133355E-15, 1.224646799147353207E-16, -1.000000000000000000 ) ) ;
#229 = LOCAL_TIME ( 15, 22, 24.00000000000000000, #96 ) ;
#230 = AXIS2_PLACEMENT_3D ( 'NONE', #88, #162, #243 ) ;
#231 = ORIENTED_EDGE ( 'NONE', *, *, #264, .T. ) ;
#232 = DIRECTION ( 'NONE',  ( 4.970141791967115188E-31, 1.000000000000000000, 1.398970545142601826E-16 ) ) ;
#233 = VERTEX_POINT ( 'NONE', #332 ) ;
#234 = EDGE_CURVE ( 'NONE', #217, #233, #302, .T. ) ;
#235 = LINE ( 'NONE', #104, #163 ) ;
#236 = CIRCLE ( 'NONE', #41, 1.549999999999987166 ) ;
#237 = ORIENTED_EDGE ( 'NONE', *, *, #282, .T. ) ;
#238 = CARTESIAN_POINT ( 'NONE',  ( 1.256933281983528008E-13, 1.549999999999982725, 36.00000000000000000 ) ) ;
#239 = EDGE_CURVE ( 'NONE', #118, #201, #138, .T. ) ;
#240 = MANIFOLD_SOLID_BREP ( 'Corps-Déplacer/Copier1[2]', #128 ) ;
#241 = ORIENTED_EDGE ( 'NONE', *, *, #239, .F. ) ;
#242 = DIRECTION ( 'NONE',  ( -3.491481338843133355E-15, 1.224646799147353207E-16, -1.000000000000000000 ) ) ;
#243 = DIRECTION ( 'NONE',  ( -4.970141791967115188E-31, -1.000000000000000000, -1.398970545142601826E-16 ) ) ;
#244 = CONICAL_SURFACE ( 'NONE', #298, 1.149999999999990585, 0.7853981633974512766 ) ;
#245 = DIRECTION ( 'NONE',  ( -3.491481338843133355E-15, 1.224646799147353207E-16, -1.000000000000000000 ) ) ;
#246 = DATE_AND_TIME ( #140, #229 ) ;
#247 = MANIFOLD_SOLID_BREP ( 'Corps-Déplacer/Copier1[1]', #274 ) ;
#248 = ORIENTED_EDGE ( 'NONE', *, *, #73, .F. ) ;
#249 = CARTESIAN_POINT ( 'NONE',  ( 3.441555393667551510E-15, 1.549999999999982725, 0.9313339594927186882 ) ) ;
#250 = APPROVAL_DATE_TIME ( #46, #323 ) ;
#251 = ORIENTED_EDGE ( 'NONE', *, *, #103, .F. ) ;
#252 = DIRECTION ( 'NONE',  ( -3.491481338843133355E-15, 1.224646799147353207E-16, -1.000000000000000000 ) ) ;
#253 = CYLINDRICAL_SURFACE ( 'NONE', #107, 1.549999999999988942 ) ;
#254 = PRODUCT ( '40173', '40173', '', ( #304 ) ) ;
#255 = PERSON_AND_ORGANIZATION_ROLE ( 'classification_officer' ) ;
#256 = DATE_TIME_ROLE ( 'creation_date' ) ;
#257 = EDGE_LOOP ( 'NONE', ( #56, #186, #237, #99 ) ) ;
#258 = AXIS2_PLACEMENT_3D ( 'NONE', #313, #280, #165 ) ;
#259 = DIRECTION ( 'NONE',  ( -3.491481338843133355E-15, 1.224646799147353207E-16, -1.000000000000000000 ) ) ;
#260 =( GEOMETRIC_REPRESENTATION_CONTEXT ( 3 ) GLOBAL_UNCERTAINTY_ASSIGNED_CONTEXT ( ( #13 ) ) GLOBAL_UNIT_ASSIGNED_CONTEXT ( ( #310, #83, #191 ) ) REPRESENTATION_CONTEXT ( 'NONE', 'WORKASPACE' ) );
#261 = CALENDAR_DATE ( 2021, 2, 9 ) ;
#262 = ORIENTED_EDGE ( 'NONE', *, *, #182, .T. ) ;
#263 = APPROVAL_PERSON_ORGANIZATION ( #305, #197, #137 ) ;
#264 = EDGE_CURVE ( 'NONE', #176, #201, #188, .T. ) ;
#265 = EDGE_LOOP ( 'NONE', ( #318, #44 ) ) ;
#266 = CARTESIAN_POINT ( 'NONE',  ( 0.0000000000000000000, 0.0000000000000000000, 0.0000000000000000000 ) ) ;
#267 = FACE_OUTER_BOUND ( 'NONE', #152, .T. ) ;
#268 = FACE_OUTER_BOUND ( 'NONE', #58, .T. ) ;
#269 = ORGANIZATION ( 'UNSPECIFIED', 'UNSPECIFIED', '' ) ;
#270 = DIRECTION ( 'NONE',  ( -3.491481338843133355E-15, 1.224646799147353207E-16, -1.000000000000000000 ) ) ;
#271 = CARTESIAN_POINT ( 'NONE',  ( 2.269462870248037060E-13, -7.960204194457797252E-15, 65.00000000000000000 ) ) ;
#272 = SHAPE_DEFINITION_REPRESENTATION ( #196, #78 ) ;
#273 = ORIENTED_EDGE ( 'NONE', *, *, #73, .T. ) ;
#274 = CLOSED_SHELL ( 'NONE', ( #151, #62, #76, #11, #291, #22 ) ) ;
#275 = LINE ( 'NONE', #279, #312 ) ;
#276 = ADVANCED_FACE ( 'NONE', ( #306 ), #156, .T. ) ;
#277 = CONICAL_SURFACE ( 'NONE', #77, 1.149999999999990585, 0.7853981633974512766 ) ;
#278 = ORIENTED_EDGE ( 'NONE', *, *, #333, .T. ) ;
#279 = CARTESIAN_POINT ( 'NONE',  ( 6.627538741140238634E-31, 1.549999999999988942, 1.898202538678383900E-16 ) ) ;
#280 = DIRECTION ( 'NONE',  ( -3.491481338843133355E-15, 1.224646799147353207E-16, -1.000000000000000000 ) ) ;
#281 = PERSON_AND_ORGANIZATION ( #112, #269 ) ;
#282 = EDGE_CURVE ( 'NONE', #233, #216, #275, .T. ) ;
#283 = DIRECTION ( 'NONE',  ( -4.275831445896958607E-31, -1.000000000000000000, -1.224646799147353207E-16 ) ) ;
#284 = LOCAL_TIME ( 15, 22, 24.00000000000000000, #86 ) ;
#285 = AXIS2_PLACEMENT_3D ( 'NONE', #177, #102, #106 ) ;
#286 = VECTOR ( 'NONE', #84, 1000.000000000000000 ) ;
#287 = PLANE ( 'NONE',  #300 ) ;
#288 = COORDINATED_UNIVERSAL_TIME_OFFSET ( 1, 0, .AHEAD. ) ;
#289 = ORIENTED_EDGE ( 'NONE', *, *, #282, .F. ) ;
#290 = ORIENTED_EDGE ( 'NONE', *, *, #234, .F. ) ;
#291 = ADVANCED_FACE ( 'NONE', ( #1 ), #244, .T. ) ;
#292 = LOCAL_TIME ( 15, 22, 24.00000000000000000, #94 ) ;
#293 = CIRCLE ( 'NONE', #147, 1.549999999999987166 ) ;
#294 = DATE_TIME_ROLE ( 'classification_date' ) ;
#295 = ORIENTED_EDGE ( 'NONE', *, *, #307, .T. ) ;
#296 = DESIGN_CONTEXT ( 'detailed design', #53, 'design' ) ;
#297 = ORIENTED_EDGE ( 'NONE', *, *, #172, .T. ) ;
#298 = AXIS2_PLACEMENT_3D ( 'NONE', #121, #252, #139 ) ;
#299 = DIRECTION ( 'NONE',  ( 0.0000000000000000000, 1.000000000000000000, 0.0000000000000000000 ) ) ;
#300 = AXIS2_PLACEMENT_3D ( 'NONE', #5, #92, #283 ) ;
#301 = CARTESIAN_POINT ( 'NONE',  ( 2.255496944892664526E-13, -7.911218322491902246E-15, 64.60000000000000853 ) ) ;
#302 = LINE ( 'NONE', #326, #108 ) ;
#303 = CIRCLE ( 'NONE', #331, 1.549999999999982947 ) ;
#304 = MECHANICAL_CONTEXT ( 'NONE', #117, 'mechanical' ) ;
#305 = PERSON_AND_ORGANIZATION ( #112, #269 ) ;
#306 = FACE_OUTER_BOUND ( 'NONE', #324, .T. ) ;
#307 = EDGE_CURVE ( 'NONE', #329, #217, #9, .T. ) ;
#308 = ORIENTED_EDGE ( 'NONE', *, *, #93, .T. ) ;
#309 = CIRCLE ( 'NONE', #208, 1.549999999999987166 ) ;
#310 =( LENGTH_UNIT ( ) NAMED_UNIT ( * ) SI_UNIT ( .MILLI., .METRE. ) );
#311 = CALENDAR_DATE ( 2021, 2, 9 ) ;
#312 = VECTOR ( 'NONE', #270, 1000.000000000000000 ) ;
#313 = CARTESIAN_POINT ( 'NONE',  ( 2.269462870248037060E-13, 8.623618750305491030E-33, 65.00000000000000000 ) ) ;
#314 = CC_DESIGN_APPROVAL ( #323, ( #130 ) ) ;
#315 = PERSON_AND_ORGANIZATION_ROLE ( 'creator' ) ;
#316 = DIRECTION ( 'NONE',  ( 1.798245827342160317E-15, -0.8571673007021098911, 0.5150380749100582634 ) ) ;
#317 = APPROVAL_STATUS ( 'not_yet_approved' ) ;
#318 = ORIENTED_EDGE ( 'NONE', *, *, #209, .F. ) ;
#319 = CALENDAR_DATE ( 2021, 2, 9 ) ;
#320 = LINE ( 'NONE', #206, #116 ) ;
#321 = AXIS2_PLACEMENT_3D ( 'NONE', #134, #211, #205 ) ;
#322 = DIRECTION ( 'NONE',  ( -4.275831445896958607E-31, -1.000000000000000000, -1.224646799147353207E-16 ) ) ;
#323 = APPROVAL ( #317, 'UNSPECIFIED' ) ;
#324 = EDGE_LOOP ( 'NONE', ( #248, #231, #262 ) ) ;
#325 = ORIENTED_EDGE ( 'NONE', *, *, #6, .F. ) ;
#326 = CARTESIAN_POINT ( 'NONE',  ( 2.269462870248037060E-13, 1.149999999999982592, 65.00000000000000000 ) ) ;
#327 = DIRECTION ( 'NONE',  ( -3.491481338843133355E-15, 1.224646799147353207E-16, -1.000000000000000000 ) ) ;
#328 = CIRCLE ( 'NONE', #65, 1.549999999999990719 ) ;
#329 = VERTEX_POINT ( 'NONE', #48 ) ;
#330 = DATE_AND_TIME ( #133, #23 ) ;
#331 = AXIS2_PLACEMENT_3D ( 'NONE', #154, #327, #15 ) ;
#332 = CARTESIAN_POINT ( 'NONE',  ( 2.255496944892664526E-13, 1.549999999999982725, 64.60000000000000853 ) ) ;
#333 = EDGE_CURVE ( 'NONE', #52, #216, #236, .T. ) ;
#334 = DIRECTION ( 'NONE',  ( 4.275831445896958607E-31, 1.000000000000000000, 1.224646799147353207E-16 ) ) ;
#335 = CC_DESIGN_DATE_AND_TIME_ASSIGNMENT ( #207, #294, ( #178 ) ) ;
#336 = DIRECTION ( 'NONE',  ( 1.000000000000000000, 0.0000000000000000000, 0.0000000000000000000 ) ) ;
#337 = PRODUCT_DEFINITION_FORMATION_WITH_SPECIFIED_SOURCE ( 'ANY', '', #254, .NOT_KNOWN. ) ;
ENDSEC;
END-ISO-10303-21;
