ISO-10303-21;
HEADER;
FILE_DESCRIPTION (( 'STEP AP203' ),
    '1' );
FILE_NAME ('40078.step',
    '2021-09-02T13:22:22',
    ( '' ),
    ( '' ),
    'SwSTEP 2.0',
    'SolidWorks 2019',
    '' );
FILE_SCHEMA (( 'CONFIG_CONTROL_DESIGN' ));
ENDSEC;

DATA;
#1 = CARTESIAN_POINT ( 'NONE',  ( 2.445751442709000045E-13, -1.400000000000012346, 70.00000000000000000 ) ) ;
#2 =( NAMED_UNIT ( * ) SI_UNIT ( $, .STERADIAN. ) SOLID_ANGLE_UNIT ( ) );
#3 = DIRECTION ( 'NONE',  ( -3.491481338843133355E-15, 1.224646799147353207E-16, -1.000000000000000000 ) ) ;
#4 = VERTEX_POINT ( 'NONE', #178 ) ;
#5 = DIRECTION ( 'NONE',  ( -3.491481338843133355E-15, 1.224646799147353207E-16, -1.000000000000000000 ) ) ;
#6 = APPLICATION_PROTOCOL_DEFINITION ( 'international standard', 'config_control_design', 1994, #54 ) ;
#7 = EDGE_CURVE ( 'NONE', #75, #284, #162, .T. ) ;
#8 = PERSON_AND_ORGANIZATION ( #132, #119 ) ;
#9 = CALENDAR_DATE ( 2021, 2, 9 ) ;
#10 = ADVANCED_FACE ( 'NONE', ( #335 ), #203, .T. ) ;
#11 = APPROVAL_STATUS ( 'not_yet_approved' ) ;
#12 = AXIS2_PLACEMENT_3D ( 'NONE', #103, #216, #29 ) ;
#13 = CARTESIAN_POINT ( 'NONE',  ( 2.444036937190193601E-13, -8.572527594031472993E-15, 70.00000000000000000 ) ) ;
#14 = AXIS2_PLACEMENT_3D ( 'NONE', #72, #101, #182 ) ;
#15 = DIRECTION ( 'NONE',  ( -3.491481338843133355E-15, 1.224646799147353207E-16, -1.000000000000000000 ) ) ;
#16 = EDGE_LOOP ( 'NONE', ( #255, #240, #127, #316 ) ) ;
#17 = AXIS2_PLACEMENT_3D ( 'NONE', #305, #286, #67 ) ;
#18 = CARTESIAN_POINT ( 'NONE',  ( 1.361677722148822135E-13, -4.776122516674677878E-15, 39.00000000000000000 ) ) ;
#19 = EDGE_LOOP ( 'NONE', ( #159, #96, #95 ) ) ;
#20 = EDGE_CURVE ( 'NONE', #269, #98, #42, .T. ) ;
#21 = CARTESIAN_POINT ( 'NONE',  ( 7.696496602614533024E-31, 1.800000000000001599, 2.204364238465238041E-16 ) ) ;
#22 = CARTESIAN_POINT ( 'NONE',  ( 3.776208549444859792E-15, -1.324515660886449130E-16, 1.081549114249617638 ) ) ;
#23 = AXIS2_PLACEMENT_3D ( 'NONE', #209, #90, #150 ) ;
#24 = AXIS2_PLACEMENT_3D ( 'NONE', #180, #62, #46 ) ;
#25 = DIRECTION ( 'NONE',  ( 4.275831445896958607E-31, 1.000000000000000000, 1.224646799147353207E-16 ) ) ;
#26 = DIRECTION ( 'NONE',  ( -3.491481338843133355E-15, 1.224646799147353207E-16, -1.000000000000000000 ) ) ;
#27 = CARTESIAN_POINT ( 'NONE',  ( 0.0000000000000000000, 0.0000000000000000000, 0.0000000000000000000 ) ) ;
#28 = CARTESIAN_POINT ( 'NONE',  ( 2.430071011834821320E-13, 1.799999999999995159, 69.60000000000000853 ) ) ;
#29 = DIRECTION ( 'NONE',  ( 0.0000000000000000000, 1.000000000000000000, 0.0000000000000000000 ) ) ;
#30 = MANIFOLD_SOLID_BREP ( 'Corps-Déplacer/Copier1[2]', #196 ) ;
#31 = COORDINATED_UNIVERSAL_TIME_OFFSET ( 1, 0, .AHEAD. ) ;
#32 = COORDINATED_UNIVERSAL_TIME_OFFSET ( 1, 0, .AHEAD. ) ;
#33 = LOCAL_TIME ( 15, 22, 22.00000000000000000, #57 ) ;
#34 = DIRECTION ( 'NONE',  ( 0.0000000000000000000, 1.000000000000000000, 0.0000000000000000000 ) ) ;
#35 = SECURITY_CLASSIFICATION_LEVEL ( 'unclassified' ) ;
#36 = CALENDAR_DATE ( 2021, 2, 9 ) ;
#37 = DIRECTION ( 'NONE',  ( -4.279844320860535406E-31, -1.000000000000000000, -1.204669080539452548E-16 ) ) ;
#38 = CONICAL_SURFACE ( 'NONE', #74, 1.799999999999995381, 1.029744258676649649 ) ;
#39 = PRODUCT_DEFINITION_SHAPE ( 'NONE', 'NONE',  #139 ) ;
#40 = EDGE_CURVE ( 'NONE', #4, #282, #173, .T. ) ;
#41 = CYLINDRICAL_SURFACE ( 'NONE', #324, 1.800000000000001599 ) ;
#42 = LINE ( 'NONE', #1, #93 ) ;
#43 = ORIENTED_EDGE ( 'NONE', *, *, #184, .T. ) ;
#44 = CC_DESIGN_PERSON_AND_ORGANIZATION_ASSIGNMENT ( #55, #115, ( #274 ) ) ;
#45 = LINE ( 'NONE', #21, #237 ) ;
#46 = DIRECTION ( 'NONE',  ( 0.0000000000000000000, 1.000000000000000000, 0.0000000000000000000 ) ) ;
#47 = ORIENTED_EDGE ( 'NONE', *, *, #312, .T. ) ;
#48 = VERTEX_POINT ( 'NONE', #332 ) ;
#49 = EDGE_LOOP ( 'NONE', ( #287, #151 ) ) ;
#50 = CARTESIAN_POINT ( 'NONE',  ( 3.776208549444859004E-15, -1.799999999999995604, 1.081549114249617416 ) ) ;
#51 = ORIENTED_EDGE ( 'NONE', *, *, #84, .F. ) ;
#52 = CYLINDRICAL_SURFACE ( 'NONE', #301, 1.799999999999997824 ) ;
#53 = LOCAL_TIME ( 15, 22, 22.00000000000000000, #136 ) ;
#54 = APPLICATION_CONTEXT ( 'configuration controlled 3d designs of mechanical parts and assemblies' ) ;
#55 = PERSON_AND_ORGANIZATION ( #132, #119 ) ;
#56 = CARTESIAN_POINT ( 'NONE',  ( 1.361677722148822135E-13, -4.776122516674677878E-15, 39.00000000000000000 ) ) ;
#57 = COORDINATED_UNIVERSAL_TIME_OFFSET ( 1, 0, .AHEAD. ) ;
#58 = VECTOR ( 'NONE', #192, 1000.000000000000000 ) ;
#59 = CARTESIAN_POINT ( 'NONE',  ( 1.361677722148822135E-13, -4.776122516674677878E-15, 39.00000000000000000 ) ) ;
#60 = DIRECTION ( 'NONE',  ( 3.491481338843133355E-15, -1.224646799147353207E-16, 1.000000000000000000 ) ) ;
#61 = CIRCLE ( 'NONE', #66, 1.800000000000000044 ) ;
#62 = DIRECTION ( 'NONE',  ( -3.491481338843133355E-15, 1.224646799147353207E-16, -1.000000000000000000 ) ) ;
#63 = CYLINDRICAL_SURFACE ( 'NONE', #17, 1.799999999999997824 ) ;
#64 = ADVANCED_FACE ( 'NONE', ( #238 ), #283, .T. ) ;
#65 = ORIENTED_EDGE ( 'NONE', *, *, #40, .T. ) ;
#66 = AXIS2_PLACEMENT_3D ( 'NONE', #56, #329, #195 ) ;
#67 = DIRECTION ( 'NONE',  ( 4.275831445896958607E-31, 1.000000000000000000, 1.224646799147353207E-16 ) ) ;
#68 = EDGE_LOOP ( 'NONE', ( #177, #47, #130, #308 ) ) ;
#69 = CARTESIAN_POINT ( 'NONE',  ( 1.898078731230285748E-13, -1.800000000000012035, 69.60000000000000853 ) ) ;
#70 = ORIENTED_EDGE ( 'NONE', *, *, #198, .T. ) ;
#71 = ORIENTED_EDGE ( 'NONE', *, *, #213, .T. ) ;
#72 = CARTESIAN_POINT ( 'NONE',  ( 1.361677722148822135E-13, 1.349783804395664731E-32, 39.00000000000000000 ) ) ;
#73 = ADVANCED_FACE ( 'NONE', ( #174 ), #336, .T. ) ;
#74 = AXIS2_PLACEMENT_3D ( 'NONE', #278, #249, #37 ) ;
#75 = VERTEX_POINT ( 'NONE', #205 ) ;
#76 = CARTESIAN_POINT ( 'NONE',  ( 3.996644973291383375E-15, 1.799999999999995159, 1.081549114249617860 ) ) ;
#77 = ADVANCED_FACE ( 'NONE', ( #313 ), #63, .T. ) ;
#78 = APPROVAL_DATE_TIME ( #273, #104 ) ;
#79 = AXIS2_PLACEMENT_3D ( 'NONE', #59, #297, #171 ) ;
#80 = APPROVAL ( #11, 'UNSPECIFIED' ) ;
#81 = CARTESIAN_POINT ( 'NONE',  ( 2.439013409391142819E-13, -1.400000000000012346, 70.00000000000000000 ) ) ;
#82 = DATE_AND_TIME ( #228, #33 ) ;
#83 = DATE_AND_TIME ( #9, #53 ) ;
#84 = EDGE_CURVE ( 'NONE', #98, #282, #322, .T. ) ;
#85 = UNCERTAINTY_MEASURE_WITH_UNIT (LENGTH_MEASURE( 1.000000000000000082E-05 ), #108, 'distance_accuracy_value', 'NONE');
#86 = PERSON_AND_ORGANIZATION ( #132, #119 ) ;
#87 = DATE_TIME_ROLE ( 'classification_date' ) ;
#88 = EDGE_CURVE ( 'NONE', #289, #263, #94, .T. ) ;
#89 = CARTESIAN_POINT ( 'NONE',  ( 2.444036937190193601E-13, 1.049831847863290199E-32, 70.00000000000000000 ) ) ;
#90 = DIRECTION ( 'NONE',  ( -3.491481338843133355E-15, 1.224646799147353207E-16, -1.000000000000000000 ) ) ;
#91 = EDGE_LOOP ( 'NONE', ( #311, #179 ) ) ;
#92 = ORIENTED_EDGE ( 'NONE', *, *, #288, .T. ) ;
#93 = VECTOR ( 'NONE', #236, 1000.000000000000114 ) ;
#94 = CIRCLE ( 'NONE', #197, 1.799999999999995381 ) ;
#95 = ORIENTED_EDGE ( 'NONE', *, *, #88, .T. ) ;
#96 = ORIENTED_EDGE ( 'NONE', *, *, #218, .T. ) ;
#97 = DIRECTION ( 'NONE',  ( -2.468850131082257455E-15, 0.7071067811865497932, -0.7071067811865453523 ) ) ;
#98 = VERTEX_POINT ( 'NONE', #69 ) ;
#99 = ADVANCED_FACE ( 'NONE', ( #202 ), #41, .T. ) ;
#100 = ORIENTED_EDGE ( 'NONE', *, *, #325, .T. ) ;
#101 = DIRECTION ( 'NONE',  ( 3.491481338843133355E-15, -1.224646799147353207E-16, 1.000000000000000000 ) ) ;
#102 = EDGE_LOOP ( 'NONE', ( #181, #71, #242, #290 ) ) ;
#103 = CARTESIAN_POINT ( 'NONE',  ( 2.444036937190193601E-13, -8.572527594031472993E-15, 70.00000000000000000 ) ) ;
#104 = APPROVAL ( #138, 'UNSPECIFIED' ) ;
#105 = APPROVAL_STATUS ( 'not_yet_approved' ) ;
#106 = COORDINATED_UNIVERSAL_TIME_OFFSET ( 1, 0, .AHEAD. ) ;
#107 = CC_DESIGN_APPROVAL ( #80, ( #321 ) ) ;
#108 =( LENGTH_UNIT ( ) NAMED_UNIT ( * ) SI_UNIT ( .MILLI., .METRE. ) );
#109 = VECTOR ( 'NONE', #97, 1000.000000000000114 ) ;
#110 = APPROVAL_DATE_TIME ( #83, #169 ) ;
#111 = VECTOR ( 'NONE', #161, 1000.000000000000000 ) ;
#112 = PERSON_AND_ORGANIZATION_ROLE ( 'design_supplier' ) ;
#113 = EDGE_CURVE ( 'NONE', #292, #48, #279, .T. ) ;
#114 = LINE ( 'NONE', #326, #220 ) ;
#115 = PERSON_AND_ORGANIZATION_ROLE ( 'creator' ) ;
#116 = APPROVAL_PERSON_ORGANIZATION ( #248, #80, #165 ) ;
#117 = PRODUCT_RELATED_PRODUCT_CATEGORY ( 'detail', '', ( #252 ) ) ;
#118 = DIRECTION ( 'NONE',  ( 4.279844320860535406E-31, 1.000000000000000000, 1.204669080539452548E-16 ) ) ;
#119 = ORGANIZATION ( 'UNSPECIFIED', 'UNSPECIFIED', '' ) ;
#120 = EDGE_CURVE ( 'NONE', #282, #98, #330, .T. ) ;
#121 = CARTESIAN_POINT ( 'NONE',  ( 2.204364238465230152E-16, -1.800000000000001599, -2.204364238465245190E-16 ) ) ;
#122 = AXIS2_PLACEMENT_3D ( 'NONE', #124, #26, #158 ) ;
#123 = CIRCLE ( 'NONE', #189, 1.799999999999995381 ) ;
#124 = CARTESIAN_POINT ( 'NONE',  ( 1.361677722148822135E-13, -4.776122516674677878E-15, 39.00000000000000000 ) ) ;
#125 = LINE ( 'NONE', #201, #111 ) ;
#126 = DIRECTION ( 'NONE',  ( 0.0000000000000000000, 1.000000000000000000, 0.0000000000000000000 ) ) ;
#127 = ORIENTED_EDGE ( 'NONE', *, *, #149, .T. ) ;
#128 = CIRCLE ( 'NONE', #172, 1.400000000000003686 ) ;
#129 = DIRECTION ( 'NONE',  ( 4.275831445896958607E-31, 1.000000000000000000, 1.224646799147353454E-16 ) ) ;
#130 = ORIENTED_EDGE ( 'NONE', *, *, #88, .F. ) ;
#131 = ADVANCED_BREP_SHAPE_REPRESENTATION ( '40078', ( #148, #30, #256 ), #141 ) ;
#132 = PERSON ( 'UNSPECIFIED', 'UNSPECIFIED', 'UNSPECIFIED', ('UNSPECIFIED'), ('UNSPECIFIED'), ('UNSPECIFIED') ) ;
#133 = ORIENTED_EDGE ( 'NONE', *, *, #218, .F. ) ;
#134 = LINE ( 'NONE', #244, #247 ) ;
#135 = DIRECTION ( 'NONE',  ( 1.000000000000000000, 0.0000000000000000000, 0.0000000000000000000 ) ) ;
#136 = COORDINATED_UNIVERSAL_TIME_OFFSET ( 1, 0, .AHEAD. ) ;
#137 = DIRECTION ( 'NONE',  ( 1.798245827342160317E-15, -0.8571673007021098911, 0.5150380749100582634 ) ) ;
#138 = APPROVAL_STATUS ( 'not_yet_approved' ) ;
#139 = PRODUCT_DEFINITION ( 'UNKNOWN', '', #274, #142 ) ;
#140 = SHAPE_DEFINITION_REPRESENTATION ( #39, #131 ) ;
#141 =( GEOMETRIC_REPRESENTATION_CONTEXT ( 3 ) GLOBAL_UNCERTAINTY_ASSIGNED_CONTEXT ( ( #85 ) ) GLOBAL_UNIT_ASSIGNED_CONTEXT ( ( #108, #265, #2 ) ) REPRESENTATION_CONTEXT ( 'NONE', 'WORKASPACE' ) );
#142 = DESIGN_CONTEXT ( 'detailed design', #243, 'design' ) ;
#143 = DATE_AND_TIME ( #223, #235 ) ;
#144 = AXIS2_PLACEMENT_3D ( 'NONE', #266, #199, #304 ) ;
#145 = AXIS2_PLACEMENT_3D ( 'NONE', #18, #262, #126 ) ;
#146 = DIRECTION ( 'NONE',  ( -3.491481338843133355E-15, 1.224646799147353207E-16, -1.000000000000000000 ) ) ;
#147 = VERTEX_POINT ( 'NONE', #176 ) ;
#148 = MANIFOLD_SOLID_BREP ( 'Corps-Déplacer/Copier1[1]', #227 ) ;
#149 = EDGE_CURVE ( 'NONE', #282, #292, #45, .T. ) ;
#150 = DIRECTION ( 'NONE',  ( 0.0000000000000000000, 1.000000000000000000, 0.0000000000000000000 ) ) ;
#151 = ORIENTED_EDGE ( 'NONE', *, *, #226, .F. ) ;
#152 = DIRECTION ( 'NONE',  ( 0.0000000000000000000, 1.000000000000000000, 0.0000000000000000000 ) ) ;
#153 = DIRECTION ( 'NONE',  ( -3.491481338843133355E-15, 1.224646799147353207E-16, -1.000000000000000000 ) ) ;
#154 = EDGE_LOOP ( 'NONE', ( #267, #43 ) ) ;
#155 = DIRECTION ( 'NONE',  ( -3.491481338843133355E-15, 1.224646799147353207E-16, -1.000000000000000000 ) ) ;
#156 = AXIS2_PLACEMENT_3D ( 'NONE', #232, #3, #152 ) ;
#157 = AXIS2_PLACEMENT_3D ( 'NONE', #300, #60, #168 ) ;
#158 = DIRECTION ( 'NONE',  ( 0.0000000000000000000, 1.000000000000000000, 0.0000000000000000000 ) ) ;
#159 = ORIENTED_EDGE ( 'NONE', *, *, #325, .F. ) ;
#160 = CARTESIAN_POINT ( 'NONE',  ( 3.776208549444859792E-15, -1.324515660886449130E-16, 1.081549114249617638 ) ) ;
#161 = DIRECTION ( 'NONE',  ( -3.491481338843133355E-15, 1.224646799147353207E-16, -1.000000000000000000 ) ) ;
#162 = CIRCLE ( 'NONE', #122, 1.800000000000000044 ) ;
#163 = DATE_TIME_ROLE ( 'creation_date' ) ;
#164 = EDGE_CURVE ( 'NONE', #263, #289, #123, .T. ) ;
#165 = APPROVAL_ROLE ( '' ) ;
#166 = PERSON_AND_ORGANIZATION ( #132, #119 ) ;
#167 = CONICAL_SURFACE ( 'NONE', #231, 1.799999999999995381, 1.029744258676649649 ) ;
#168 = DIRECTION ( 'NONE',  ( -4.275831445896958607E-31, -1.000000000000000000, -1.224646799147353207E-16 ) ) ;
#169 = APPROVAL ( #105, 'UNSPECIFIED' ) ;
#170 = CC_DESIGN_PERSON_AND_ORGANIZATION_ASSIGNMENT ( #166, #112, ( #274 ) ) ;
#171 = DIRECTION ( 'NONE',  ( 0.0000000000000000000, 1.000000000000000000, 0.0000000000000000000 ) ) ;
#172 = AXIS2_PLACEMENT_3D ( 'NONE', #13, #15, #34 ) ;
#173 = LINE ( 'NONE', #260, #109 ) ;
#174 = FACE_OUTER_BOUND ( 'NONE', #306, .T. ) ;
#175 = ORIENTED_EDGE ( 'NONE', *, *, #226, .T. ) ;
#176 = CARTESIAN_POINT ( 'NONE',  ( 0.0000000000000000000, 0.0000000000000000000, 0.0000000000000000000 ) ) ;
#177 = ORIENTED_EDGE ( 'NONE', *, *, #7, .T. ) ;
#178 = CARTESIAN_POINT ( 'NONE',  ( 2.444036937190193601E-13, 1.399999999999995026, 70.00000000000000000 ) ) ;
#179 = ORIENTED_EDGE ( 'NONE', *, *, #288, .F. ) ;
#180 = CARTESIAN_POINT ( 'NONE',  ( 2.430071011834821320E-13, -8.523541722065579564E-15, 69.60000000000000853 ) ) ;
#181 = ORIENTED_EDGE ( 'NONE', *, *, #120, .T. ) ;
#182 = DIRECTION ( 'NONE',  ( -4.275831445896958607E-31, -1.000000000000000000, -1.224646799147353207E-16 ) ) ;
#183 = CC_DESIGN_APPROVAL ( #169, ( #139 ) ) ;
#184 = EDGE_CURVE ( 'NONE', #48, #292, #317, .T. ) ;
#185 = EDGE_LOOP ( 'NONE', ( #334, #92, #65, #51 ) ) ;
#186 = CARTESIAN_POINT ( 'NONE',  ( 7.019242680600990245E-14, -1.800000000000004707, 39.00000000000000000 ) ) ;
#187 = LOCAL_TIME ( 15, 22, 22.00000000000000000, #32 ) ;
#188 = PLANE ( 'NONE',  #14 ) ;
#189 = AXIS2_PLACEMENT_3D ( 'NONE', #194, #222, #118 ) ;
#190 = ADVANCED_FACE ( 'NONE', ( #225 ), #38, .T. ) ;
#191 = LINE ( 'NONE', #320, #309 ) ;
#192 = DIRECTION ( 'NONE',  ( -3.491481338843133355E-15, 1.224646799147353207E-16, -1.000000000000000000 ) ) ;
#193 = PERSON_AND_ORGANIZATION ( #132, #119 ) ;
#194 = CARTESIAN_POINT ( 'NONE',  ( 3.776208549444859792E-15, -1.324515660886449130E-16, 1.081549114249617638 ) ) ;
#195 = DIRECTION ( 'NONE',  ( 0.0000000000000000000, 1.000000000000000000, 0.0000000000000000000 ) ) ;
#196 = CLOSED_SHELL ( 'NONE', ( #277, #190, #253, #77, #229 ) ) ;
#197 = AXIS2_PLACEMENT_3D ( 'NONE', #22, #281, #280 ) ;
#198 = EDGE_CURVE ( 'NONE', #4, #269, #128, .T. ) ;
#199 = DIRECTION ( 'NONE',  ( -3.491481338843133355E-15, 1.224646799147353207E-16, -1.000000000000000000 ) ) ;
#200 = EDGE_LOOP ( 'NONE', ( #319, #175, #214, #294 ) ) ;
#201 = CARTESIAN_POINT ( 'NONE',  ( 7.696496602614515508E-31, 1.799999999999997824, 2.204364238465233111E-16 ) ) ;
#202 = FACE_OUTER_BOUND ( 'NONE', #16, .T. ) ;
#203 = CONICAL_SURFACE ( 'NONE', #156, 1.400000000000003686, 0.7853981633974512766 ) ;
#204 = APPROVAL_PERSON_ORGANIZATION ( #8, #169, #272 ) ;
#205 = CARTESIAN_POINT ( 'NONE',  ( 1.361677722148822135E-13, 1.799999999999995159, 39.00000000000000000 ) ) ;
#206 = EDGE_LOOP ( 'NONE', ( #133, #100, #314 ) ) ;
#207 = CC_DESIGN_DATE_AND_TIME_ASSIGNMENT ( #143, #87, ( #321 ) ) ;
#208 = PLANE ( 'NONE',  #264 ) ;
#209 = CARTESIAN_POINT ( 'NONE',  ( 2.444036937190193601E-13, -8.572527594031472993E-15, 70.00000000000000000 ) ) ;
#210 = FACE_OUTER_BOUND ( 'NONE', #206, .T. ) ;
#211 = ORIENTED_EDGE ( 'NONE', *, *, #120, .F. ) ;
#212 = PERSON_AND_ORGANIZATION_ROLE ( 'design_owner' ) ;
#213 = EDGE_CURVE ( 'NONE', #98, #48, #276, .T. ) ;
#214 = ORIENTED_EDGE ( 'NONE', *, *, #241, .T. ) ;
#215 = CC_DESIGN_PERSON_AND_ORGANIZATION_ASSIGNMENT ( #193, #219, ( #321 ) ) ;
#216 = DIRECTION ( 'NONE',  ( -3.491481338843133355E-15, 1.224646799147353207E-16, -1.000000000000000000 ) ) ;
#217 = CC_DESIGN_APPROVAL ( #104, ( #274 ) ) ;
#218 = EDGE_CURVE ( 'NONE', #147, #289, #114, .T. ) ;
#219 = PERSON_AND_ORGANIZATION_ROLE ( 'classification_officer' ) ;
#220 = VECTOR ( 'NONE', #303, 999.9999999999998863 ) ;
#221 = APPROVAL_DATE_TIME ( #302, #80 ) ;
#222 = DIRECTION ( 'NONE',  ( -3.491481338843133355E-15, 1.224646799147353207E-16, -1.000000000000000000 ) ) ;
#223 = CALENDAR_DATE ( 2021, 2, 9 ) ;
#224 = FACE_OUTER_BOUND ( 'NONE', #49, .T. ) ;
#225 = FACE_OUTER_BOUND ( 'NONE', #19, .T. ) ;
#226 = EDGE_CURVE ( 'NONE', #284, #75, #61, .T. ) ;
#227 = CLOSED_SHELL ( 'NONE', ( #73, #64, #295, #99, #10, #233 ) ) ;
#228 = CALENDAR_DATE ( 2021, 2, 9 ) ;
#229 = ADVANCED_FACE ( 'NONE', ( #224 ), #328, .T. ) ;
#230 = CC_DESIGN_SECURITY_CLASSIFICATION ( #321, ( #274 ) ) ;
#231 = AXIS2_PLACEMENT_3D ( 'NONE', #160, #239, #323 ) ;
#232 = CARTESIAN_POINT ( 'NONE',  ( 2.444036937190193601E-13, -8.572527594031472993E-15, 70.00000000000000000 ) ) ;
#233 = ADVANCED_FACE ( 'NONE', ( #285 ), #208, .F. ) ;
#234 = CARTESIAN_POINT ( 'NONE',  ( 2.430071011834821320E-13, -8.523541722065579564E-15, 69.60000000000000853 ) ) ;
#235 = LOCAL_TIME ( 15, 22, 22.00000000000000000, #31 ) ;
#236 = DIRECTION ( 'NONE',  ( -2.382254525458708792E-15, -0.7071067811865495711, -0.7071067811865455743 ) ) ;
#237 = VECTOR ( 'NONE', #251, 1000.000000000000000 ) ;
#238 = FACE_OUTER_BOUND ( 'NONE', #102, .T. ) ;
#239 = DIRECTION ( 'NONE',  ( 3.491481338843133355E-15, -1.224646799147353207E-16, 1.000000000000000000 ) ) ;
#240 = ORIENTED_EDGE ( 'NONE', *, *, #84, .T. ) ;
#241 = EDGE_CURVE ( 'NONE', #75, #289, #125, .T. ) ;
#242 = ORIENTED_EDGE ( 'NONE', *, *, #113, .F. ) ;
#243 = APPLICATION_CONTEXT ( 'configuration controlled 3d designs of mechanical parts and assemblies' ) ;
#244 = CARTESIAN_POINT ( 'NONE',  ( 3.776208549444859004E-15, -1.799999999999995604, 1.081549114249617416 ) ) ;
#245 = APPLICATION_PROTOCOL_DEFINITION ( 'international standard', 'config_control_design', 1994, #243 ) ;
#246 = APPROVAL_ROLE ( '' ) ;
#247 = VECTOR ( 'NONE', #137, 1000.000000000000000 ) ;
#248 = PERSON_AND_ORGANIZATION ( #132, #119 ) ;
#249 = DIRECTION ( 'NONE',  ( 3.491481338843133355E-15, -1.224646799147353207E-16, 1.000000000000000000 ) ) ;
#250 = APPROVAL_PERSON_ORGANIZATION ( #86, #104, #246 ) ;
#251 = DIRECTION ( 'NONE',  ( -3.491481338843133355E-15, 1.224646799147353207E-16, -1.000000000000000000 ) ) ;
#252 = PRODUCT ( '40078', '40078', '', ( #291 ) ) ;
#253 = ADVANCED_FACE ( 'NONE', ( #210 ), #167, .T. ) ;
#254 = DIRECTION ( 'NONE',  ( 4.275831445896958607E-31, 1.000000000000000000, 1.224646799147353207E-16 ) ) ;
#255 = ORIENTED_EDGE ( 'NONE', *, *, #213, .F. ) ;
#256 = AXIS2_PLACEMENT_3D ( 'NONE', #318, #315, #135 ) ;
#257 = CC_DESIGN_PERSON_AND_ORGANIZATION_ASSIGNMENT ( #293, #212, ( #252 ) ) ;
#258 = CARTESIAN_POINT ( 'NONE',  ( 0.0000000000000000000, 0.0000000000000000000, 0.0000000000000000000 ) ) ;
#259 = ORIENTED_EDGE ( 'NONE', *, *, #20, .T. ) ;
#260 = CARTESIAN_POINT ( 'NONE',  ( 2.444036937190193601E-13, 1.399999999999995026, 70.00000000000000000 ) ) ;
#261 = LOCAL_TIME ( 15, 22, 22.00000000000000000, #106 ) ;
#262 = DIRECTION ( 'NONE',  ( -3.491481338843133355E-15, 1.224646799147353207E-16, -1.000000000000000000 ) ) ;
#263 = VERTEX_POINT ( 'NONE', #50 ) ;
#264 = AXIS2_PLACEMENT_3D ( 'NONE', #89, #146, #254 ) ;
#265 =( NAMED_UNIT ( * ) PLANE_ANGLE_UNIT ( ) SI_UNIT ( $, .RADIAN. ) );
#266 = CARTESIAN_POINT ( 'NONE',  ( 0.0000000000000000000, 0.0000000000000000000, 0.0000000000000000000 ) ) ;
#267 = ORIENTED_EDGE ( 'NONE', *, *, #113, .T. ) ;
#268 = FACE_OUTER_BOUND ( 'NONE', #154, .T. ) ;
#269 = VERTEX_POINT ( 'NONE', #81 ) ;
#270 = FACE_OUTER_BOUND ( 'NONE', #68, .T. ) ;
#271 = CIRCLE ( 'NONE', #12, 1.400000000000003686 ) ;
#272 = APPROVAL_ROLE ( '' ) ;
#273 = DATE_AND_TIME ( #275, #261 ) ;
#274 = PRODUCT_DEFINITION_FORMATION_WITH_SPECIFIED_SOURCE ( 'ANY', '', #252, .NOT_KNOWN. ) ;
#275 = CALENDAR_DATE ( 2021, 2, 9 ) ;
#276 = LINE ( 'NONE', #121, #58 ) ;
#277 = ADVANCED_FACE ( 'NONE', ( #270 ), #52, .T. ) ;
#278 = CARTESIAN_POINT ( 'NONE',  ( 3.776208549444859792E-15, -1.324515660886449130E-16, 1.081549114249617638 ) ) ;
#279 = CIRCLE ( 'NONE', #145, 1.800000000000000044 ) ;
#280 = DIRECTION ( 'NONE',  ( 4.279844320860535406E-31, 1.000000000000000000, 1.204669080539452548E-16 ) ) ;
#281 = DIRECTION ( 'NONE',  ( -3.491481338843133355E-15, 1.224646799147353207E-16, -1.000000000000000000 ) ) ;
#282 = VERTEX_POINT ( 'NONE', #28 ) ;
#283 = CYLINDRICAL_SURFACE ( 'NONE', #144, 1.800000000000001599 ) ;
#284 = VERTEX_POINT ( 'NONE', #186 ) ;
#285 = FACE_OUTER_BOUND ( 'NONE', #91, .T. ) ;
#286 = DIRECTION ( 'NONE',  ( -3.491481338843133355E-15, 1.224646799147353207E-16, -1.000000000000000000 ) ) ;
#287 = ORIENTED_EDGE ( 'NONE', *, *, #7, .F. ) ;
#288 = EDGE_CURVE ( 'NONE', #269, #4, #271, .T. ) ;
#289 = VERTEX_POINT ( 'NONE', #76 ) ;
#290 = ORIENTED_EDGE ( 'NONE', *, *, #149, .F. ) ;
#291 = MECHANICAL_CONTEXT ( 'NONE', #54, 'mechanical' ) ;
#292 = VERTEX_POINT ( 'NONE', #296 ) ;
#293 = PERSON_AND_ORGANIZATION ( #132, #119 ) ;
#294 = ORIENTED_EDGE ( 'NONE', *, *, #164, .F. ) ;
#295 = ADVANCED_FACE ( 'NONE', ( #268 ), #188, .F. ) ;
#296 = CARTESIAN_POINT ( 'NONE',  ( 1.361677722148822135E-13, 1.799999999999995159, 39.00000000000000000 ) ) ;
#297 = DIRECTION ( 'NONE',  ( -3.491481338843133355E-15, 1.224646799147353207E-16, -1.000000000000000000 ) ) ;
#298 = CC_DESIGN_PERSON_AND_ORGANIZATION_ASSIGNMENT ( #299, #327, ( #139 ) ) ;
#299 = PERSON_AND_ORGANIZATION ( #132, #119 ) ;
#300 = CARTESIAN_POINT ( 'NONE',  ( 1.361677722148822135E-13, 1.349783804395664731E-32, 39.00000000000000000 ) ) ;
#301 = AXIS2_PLACEMENT_3D ( 'NONE', #27, #5, #25 ) ;
#302 = DATE_AND_TIME ( #36, #187 ) ;
#303 = DIRECTION ( 'NONE',  ( 1.903218546456022717E-15, 0.8571673007021097801, 0.5150380749100585964 ) ) ;
#304 = DIRECTION ( 'NONE',  ( 4.275831445896958607E-31, 1.000000000000000000, 1.224646799147353454E-16 ) ) ;
#305 = CARTESIAN_POINT ( 'NONE',  ( 0.0000000000000000000, 0.0000000000000000000, 0.0000000000000000000 ) ) ;
#306 = EDGE_LOOP ( 'NONE', ( #70, #259, #211, #310 ) ) ;
#307 = DIRECTION ( 'NONE',  ( 0.0000000000000000000, 1.000000000000000000, 0.0000000000000000000 ) ) ;
#308 = ORIENTED_EDGE ( 'NONE', *, *, #241, .F. ) ;
#309 = VECTOR ( 'NONE', #155, 1000.000000000000000 ) ;
#310 = ORIENTED_EDGE ( 'NONE', *, *, #40, .F. ) ;
#311 = ORIENTED_EDGE ( 'NONE', *, *, #198, .F. ) ;
#312 = EDGE_CURVE ( 'NONE', #284, #263, #191, .T. ) ;
#313 = FACE_OUTER_BOUND ( 'NONE', #200, .T. ) ;
#314 = ORIENTED_EDGE ( 'NONE', *, *, #164, .T. ) ;
#315 = DIRECTION ( 'NONE',  ( 0.0000000000000000000, 0.0000000000000000000, 1.000000000000000000 ) ) ;
#316 = ORIENTED_EDGE ( 'NONE', *, *, #184, .F. ) ;
#317 = CIRCLE ( 'NONE', #79, 1.800000000000000044 ) ;
#318 = CARTESIAN_POINT ( 'NONE',  ( 0.0000000000000000000, 0.0000000000000000000, 0.0000000000000000000 ) ) ;
#319 = ORIENTED_EDGE ( 'NONE', *, *, #312, .F. ) ;
#320 = CARTESIAN_POINT ( 'NONE',  ( 2.204364238465225468E-16, -1.799999999999997824, -2.204364238465240753E-16 ) ) ;
#321 = SECURITY_CLASSIFICATION ( '', '', #35 ) ;
#322 = CIRCLE ( 'NONE', #24, 1.800000000000003597 ) ;
#323 = DIRECTION ( 'NONE',  ( -4.279844320860535406E-31, -1.000000000000000000, -1.204669080539452548E-16 ) ) ;
#324 = AXIS2_PLACEMENT_3D ( 'NONE', #258, #153, #129 ) ;
#325 = EDGE_CURVE ( 'NONE', #147, #263, #134, .T. ) ;
#326 = CARTESIAN_POINT ( 'NONE',  ( 3.996644973291383375E-15, 1.799999999999995159, 1.081549114249617860 ) ) ;
#327 = PERSON_AND_ORGANIZATION_ROLE ( 'creator' ) ;
#328 = PLANE ( 'NONE',  #157 ) ;
#329 = DIRECTION ( 'NONE',  ( -3.491481338843133355E-15, 1.224646799147353207E-16, -1.000000000000000000 ) ) ;
#330 = CIRCLE ( 'NONE', #337, 1.800000000000003597 ) ;
#331 = CC_DESIGN_DATE_AND_TIME_ASSIGNMENT ( #82, #163, ( #139 ) ) ;
#332 = CARTESIAN_POINT ( 'NONE',  ( 1.898078731230286758E-13, -1.800000000000004707, 39.00000000000000000 ) ) ;
#333 = DIRECTION ( 'NONE',  ( -3.491481338843133355E-15, 1.224646799147353207E-16, -1.000000000000000000 ) ) ;
#334 = ORIENTED_EDGE ( 'NONE', *, *, #20, .F. ) ;
#335 = FACE_OUTER_BOUND ( 'NONE', #185, .T. ) ;
#336 = CONICAL_SURFACE ( 'NONE', #23, 1.400000000000003686, 0.7853981633974512766 ) ;
#337 = AXIS2_PLACEMENT_3D ( 'NONE', #234, #333, #307 ) ;
ENDSEC;
END-ISO-10303-21;
