ISO-10303-21;
HEADER;
FILE_DESCRIPTION (( 'STEP AP203' ),
    '1' );
FILE_NAME ('40076.step',
    '2021-09-02T13:22:21',
    ( '' ),
    ( '' ),
    'SwSTEP 2.0',
    'SolidWorks 2019',
    '' );
FILE_SCHEMA (( 'CONFIG_CONTROL_DESIGN' ));
ENDSEC;

DATA;
#1 = DIRECTION ( 'NONE',  ( 4.565167275584568823E-31, 1.000000000000000000, 1.284980352575415411E-16 ) ) ;
#2 = ORIENTED_EDGE ( 'NONE', *, *, #114, .F. ) ;
#3 = DIRECTION ( 'NONE',  ( 4.275831445896958607E-31, 1.000000000000000000, 1.224646799147353207E-16 ) ) ;
#4 = CARTESIAN_POINT ( 'NONE',  ( 2.886186225980443775E-30, 6.749999999999992006, 8.266365894244624473E-16 ) ) ;
#5 = EDGE_LOOP ( 'NONE', ( #260, #219, #302, #315 ) ) ;
#6 = DIRECTION ( 'NONE',  ( 1.000000000000000000, 0.0000000000000000000, 0.0000000000000000000 ) ) ;
#7 = CARTESIAN_POINT ( 'NONE',  ( 0.0000000000000000000, 0.0000000000000000000, 0.0000000000000000000 ) ) ;
#8 = EDGE_CURVE ( 'NONE', #272, #163, #179, .T. ) ;
#9 = DIRECTION ( 'NONE',  ( -3.491481338843133355E-15, 1.224646799147353207E-16, -1.000000000000000000 ) ) ;
#10 = ADVANCED_FACE ( 'NONE', ( #165 ), #258, .T. ) ;
#11 = PRODUCT ( '40076', '40076', '', ( #101 ) ) ;
#12 = CIRCLE ( 'NONE', #211, 5.750000000000004441 ) ;
#13 = FACE_OUTER_BOUND ( 'NONE', #230, .T. ) ;
#14 = AXIS2_PLACEMENT_3D ( 'NONE', #279, #193, #88 ) ;
#15 = PERSON_AND_ORGANIZATION ( #291, #223 ) ;
#16 = CARTESIAN_POINT ( 'NONE',  ( 3.770799845950584024E-13, 5.061689266483748900E-32, 108.0000000000000000 ) ) ;
#17 = DATE_AND_TIME ( #243, #286 ) ;
#18 = CARTESIAN_POINT ( 'NONE',  ( 4.669393953249827652E-13, -6.750000000000023981, 159.0000000000000284 ) ) ;
#19 = AXIS2_PLACEMENT_3D ( 'NONE', #103, #105, #3 ) ;
#20 = CALENDAR_DATE ( 2021, 2, 9 ) ;
#21 = CARTESIAN_POINT ( 'NONE',  ( 8.266365894244596862E-16, -6.749999999999992006, -8.266365894244652083E-16 ) ) ;
#22 = ORIENTED_EDGE ( 'NONE', *, *, #130, .F. ) ;
#23 = SHAPE_DEFINITION_REPRESENTATION ( #237, #91 ) ;
#24 = EDGE_CURVE ( 'NONE', #251, #272, #280, .T. ) ;
#25 = ORIENTED_EDGE ( 'NONE', *, *, #310, .T. ) ;
#26 = DIRECTION ( 'NONE',  ( 1.798245827342160317E-15, -0.8571673007021098911, 0.5150380749100582634 ) ) ;
#27 = CONICAL_SURFACE ( 'NONE', #183, 6.749999999999985789, 1.029744258676649649 ) ;
#28 = AXIS2_PLACEMENT_3D ( 'NONE', #7, #229, #6 ) ;
#29 = FACE_OUTER_BOUND ( 'NONE', #200, .T. ) ;
#30 = CARTESIAN_POINT ( 'NONE',  ( 3.770799845950584024E-13, -1.322618543079141493E-14, 108.0000000000000000 ) ) ;
#31 = APPLICATION_CONTEXT ( 'configuration controlled 3d designs of mechanical parts and assemblies' ) ;
#32 = VECTOR ( 'NONE', #68, 1000.000000000000000 ) ;
#33 = AXIS2_PLACEMENT_3D ( 'NONE', #30, #141, #221 ) ;
#34 = PRODUCT_RELATED_PRODUCT_CATEGORY ( 'detail', '', ( #11 ) ) ;
#35 = CARTESIAN_POINT ( 'NONE',  ( 5.586370142149013368E-13, -1.959434878635765210E-14, 160.0000000000000000 ) ) ;
#36 = LINE ( 'NONE', #173, #294 ) ;
#37 = PLANE ( 'NONE',  #123 ) ;
#38 = APPROVAL_DATE_TIME ( #266, #319 ) ;
#39 = VECTOR ( 'NONE', #140, 999.9999999999998863 ) ;
#40 = DIRECTION ( 'NONE',  ( -3.491481338843133355E-15, 1.224646799147353207E-16, -1.000000000000000000 ) ) ;
#41 = CC_DESIGN_APPROVAL ( #213, ( #44 ) ) ;
#42 = PERSON_AND_ORGANIZATION ( #291, #223 ) ;
#43 = PERSON_AND_ORGANIZATION ( #291, #223 ) ;
#44 = PRODUCT_DEFINITION ( 'UNKNOWN', '', #184, #236 ) ;
#45 = DATE_AND_TIME ( #20, #247 ) ;
#46 = ORIENTED_EDGE ( 'NONE', *, *, #24, .T. ) ;
#47 = MANIFOLD_SOLID_BREP ( 'Corps-Déplacer/Copier1[1]', #62 ) ;
#48 = CONICAL_SURFACE ( 'NONE', #190, 6.749999999999985789, 1.029744258676649649 ) ;
#49 = ORIENTED_EDGE ( 'NONE', *, *, #171, .F. ) ;
#50 = EDGE_CURVE ( 'NONE', #251, #227, #305, .T. ) ;
#51 = DIRECTION ( 'NONE',  ( -3.491481338843133355E-15, 1.224646799147353207E-16, -1.000000000000000000 ) ) ;
#52 = CARTESIAN_POINT ( 'NONE',  ( 1.416078206041822974E-14, -4.966933728324186639E-16, 4.055809178436067697 ) ) ;
#53 = ORIENTED_EDGE ( 'NONE', *, *, #78, .F. ) ;
#54 = AXIS2_PLACEMENT_3D ( 'NONE', #118, #245, #188 ) ;
#55 = ORIENTED_EDGE ( 'NONE', *, *, #70, .T. ) ;
#56 = APPROVAL_PERSON_ORGANIZATION ( #271, #319, #92 ) ;
#57 = ORIENTED_EDGE ( 'NONE', *, *, #50, .F. ) ;
#58 = VERTEX_POINT ( 'NONE', #93 ) ;
#59 = CARTESIAN_POINT ( 'NONE',  ( 1.964470199171624533E-13, -6.750000000000011546, 108.0000000000000000 ) ) ;
#60 = DIRECTION ( 'NONE',  ( 0.0000000000000000000, 1.000000000000000000, 0.0000000000000000000 ) ) ;
#61 = PLANE ( 'NONE',  #82 ) ;
#62 = CLOSED_SHELL ( 'NONE', ( #328, #244, #153, #81, #290, #176 ) ) ;
#63 = COORDINATED_UNIVERSAL_TIME_OFFSET ( 1, 0, .AHEAD. ) ;
#64 = DIRECTION ( 'NONE',  ( -4.275831445896958607E-31, -1.000000000000000000, -1.224646799147353207E-16 ) ) ;
#65 = COORDINATED_UNIVERSAL_TIME_OFFSET ( 1, 0, .AHEAD. ) ;
#66 = AXIS2_PLACEMENT_3D ( 'NONE', #208, #299, #64 ) ;
#67 = CIRCLE ( 'NONE', #14, 6.749999999999998224 ) ;
#68 = DIRECTION ( 'NONE',  ( -3.491481338843133355E-15, 1.224646799147353207E-16, -1.000000000000000000 ) ) ;
#69 = DIRECTION ( 'NONE',  ( 0.0000000000000000000, 1.000000000000000000, 0.0000000000000000000 ) ) ;
#70 = EDGE_CURVE ( 'NONE', #127, #138, #87, .T. ) ;
#71 = VERTEX_POINT ( 'NONE', #224 ) ;
#72 = CC_DESIGN_APPROVAL ( #319, ( #184 ) ) ;
#73 = ORIENTED_EDGE ( 'NONE', *, *, #8, .T. ) ;
#74 = DIRECTION ( 'NONE',  ( -4.565167275584568823E-31, -1.000000000000000000, -1.284980352575415411E-16 ) ) ;
#75 = DIRECTION ( 'NONE',  ( -2.468850131082231817E-15, 0.7071067811865571207, -0.7071067811865379138 ) ) ;
#76 = ORIENTED_EDGE ( 'NONE', *, *, #171, .T. ) ;
#77 = CARTESIAN_POINT ( 'NONE',  ( 0.0000000000000000000, 0.0000000000000000000, 0.0000000000000000000 ) ) ;
#78 = EDGE_CURVE ( 'NONE', #71, #172, #12, .T. ) ;
#79 = ORIENTED_EDGE ( 'NONE', *, *, #198, .T. ) ;
#80 = FACE_OUTER_BOUND ( 'NONE', #144, .T. ) ;
#81 = ADVANCED_FACE ( 'NONE', ( #304 ), #189, .T. ) ;
#82 = AXIS2_PLACEMENT_3D ( 'NONE', #207, #321, #242 ) ;
#83 = CC_DESIGN_PERSON_AND_ORGANIZATION_ASSIGNMENT ( #273, #137, ( #11 ) ) ;
#84 = UNCERTAINTY_MEASURE_WITH_UNIT (LENGTH_MEASURE( 1.000000000000000082E-05 ), #316, 'distance_accuracy_value', 'NONE');
#85 = EDGE_CURVE ( 'NONE', #306, #163, #135, .T. ) ;
#86 = DATE_TIME_ROLE ( 'classification_date' ) ;
#87 = CIRCLE ( 'NONE', #33, 6.749999999999998224 ) ;
#88 = DIRECTION ( 'NONE',  ( 0.0000000000000000000, 1.000000000000000000, 0.0000000000000000000 ) ) ;
#89 = PERSON_AND_ORGANIZATION_ROLE ( 'creator' ) ;
#90 = LINE ( 'NONE', #226, #240 ) ;
#91 = ADVANCED_BREP_SHAPE_REPRESENTATION ( '40076', ( #47, #142, #28 ), #158 ) ;
#92 = APPROVAL_ROLE ( '' ) ;
#93 = CARTESIAN_POINT ( 'NONE',  ( 5.551455328760583171E-13, 6.749999999999984901, 159.0000000000000284 ) ) ;
#94 = EDGE_LOOP ( 'NONE', ( #254, #333, #192, #195 ) ) ;
#95 = VECTOR ( 'NONE', #186, 1000.000000000000000 ) ;
#96 = DATE_AND_TIME ( #252, #235 ) ;
#97 = DIRECTION ( 'NONE',  ( -3.491481338843133355E-15, 1.224646799147353207E-16, -1.000000000000000000 ) ) ;
#98 = CARTESIAN_POINT ( 'NONE',  ( 0.0000000000000000000, 0.0000000000000000000, 0.0000000000000000000 ) ) ;
#99 = CC_DESIGN_DATE_AND_TIME_ASSIGNMENT ( #216, #159, ( #44 ) ) ;
#100 = EDGE_LOOP ( 'NONE', ( #330, #283, #334, #22 ) ) ;
#101 = MECHANICAL_CONTEXT ( 'NONE', #31, 'mechanical' ) ;
#102 = ORIENTED_EDGE ( 'NONE', *, *, #50, .T. ) ;
#103 = CARTESIAN_POINT ( 'NONE',  ( 0.0000000000000000000, 0.0000000000000000000, 0.0000000000000000000 ) ) ;
#104 = EDGE_CURVE ( 'NONE', #58, #143, #264, .T. ) ;
#105 = DIRECTION ( 'NONE',  ( -3.491481338843133355E-15, 1.224646799147353207E-16, -1.000000000000000000 ) ) ;
#106 = CYLINDRICAL_SURFACE ( 'NONE', #19, 6.749999999999992006 ) ;
#107 = AXIS2_PLACEMENT_3D ( 'NONE', #35, #314, #147 ) ;
#108 = ADVANCED_FACE ( 'NONE', ( #253 ), #48, .T. ) ;
#109 = DIRECTION ( 'NONE',  ( -3.491481338843133355E-15, 1.224646799147353207E-16, -1.000000000000000000 ) ) ;
#110 = CC_DESIGN_PERSON_AND_ORGANIZATION_ASSIGNMENT ( #15, #113, ( #184 ) ) ;
#111 = PLANE ( 'NONE',  #66 ) ;
#112 = AXIS2_PLACEMENT_3D ( 'NONE', #250, #274, #1 ) ;
#113 = PERSON_AND_ORGANIZATION_ROLE ( 'design_supplier' ) ;
#114 = EDGE_CURVE ( 'NONE', #306, #272, #90, .T. ) ;
#115 = CARTESIAN_POINT ( 'NONE',  ( 1.498741864984269515E-14, 6.749999999999984901, 4.055809178436068585 ) ) ;
#116 = APPROVAL_STATUS ( 'not_yet_approved' ) ;
#117 = DIRECTION ( 'NONE',  ( 3.491481338843133355E-15, -1.224646799147353207E-16, 1.000000000000000000 ) ) ;
#118 = CARTESIAN_POINT ( 'NONE',  ( 5.586370142149013368E-13, -1.959434878635765210E-14, 160.0000000000000000 ) ) ;
#119 = APPROVAL_DATE_TIME ( #45, #213 ) ;
#120 = DIRECTION ( 'NONE',  ( -3.491481338843133355E-15, 1.224646799147353207E-16, -1.000000000000000000 ) ) ;
#121 = ORIENTED_EDGE ( 'NONE', *, *, #8, .F. ) ;
#122 = APPROVAL_STATUS ( 'not_yet_approved' ) ;
#123 = AXIS2_PLACEMENT_3D ( 'NONE', #16, #297, #182 ) ;
#124 = AXIS2_PLACEMENT_3D ( 'NONE', #233, #9, #177 ) ;
#125 = LINE ( 'NONE', #311, #285 ) ;
#126 = CARTESIAN_POINT ( 'NONE',  ( 0.0000000000000000000, 0.0000000000000000000, 0.0000000000000000000 ) ) ;
#127 = VERTEX_POINT ( 'NONE', #246 ) ;
#128 = ORIENTED_EDGE ( 'NONE', *, *, #282, .F. ) ;
#129 = DIRECTION ( 'NONE',  ( -3.491481338843133355E-15, 1.224646799147353207E-16, -1.000000000000000000 ) ) ;
#130 = EDGE_CURVE ( 'NONE', #71, #58, #125, .T. ) ;
#131 = APPROVAL_PERSON_ORGANIZATION ( #220, #174, #139 ) ;
#132 = COORDINATED_UNIVERSAL_TIME_OFFSET ( 1, 0, .AHEAD. ) ;
#133 = CIRCLE ( 'NONE', #222, 6.749999999999998224 ) ;
#134 = CC_DESIGN_SECURITY_CLASSIFICATION ( #337, ( #184 ) ) ;
#135 = LINE ( 'NONE', #277, #39 ) ;
#136 = EDGE_CURVE ( 'NONE', #227, #163, #167, .T. ) ;
#137 = PERSON_AND_ORGANIZATION_ROLE ( 'design_owner' ) ;
#138 = VERTEX_POINT ( 'NONE', #301 ) ;
#139 = APPROVAL_ROLE ( '' ) ;
#140 = DIRECTION ( 'NONE',  ( 1.903218546456022717E-15, 0.8571673007021097801, 0.5150380749100585964 ) ) ;
#141 = DIRECTION ( 'NONE',  ( -3.491481338843133355E-15, 1.224646799147353207E-16, -1.000000000000000000 ) ) ;
#142 = MANIFOLD_SOLID_BREP ( 'Corps-Déplacer/Copier1[2]', #204 ) ;
#143 = VERTEX_POINT ( 'NONE', #18 ) ;
#144 = EDGE_LOOP ( 'NONE', ( #309, #25, #49, #128 ) ) ;
#145 = ORIENTED_EDGE ( 'NONE', *, *, #198, .F. ) ;
#146 = DIRECTION ( 'NONE',  ( -3.491481338843133355E-15, 1.224646799147353207E-16, -1.000000000000000000 ) ) ;
#147 = DIRECTION ( 'NONE',  ( 0.0000000000000000000, 1.000000000000000000, 0.0000000000000000000 ) ) ;
#148 = CARTESIAN_POINT ( 'NONE',  ( 2.886186225980447278E-30, 6.750000000000000888, 8.266365894244635319E-16 ) ) ;
#149 = AXIS2_PLACEMENT_3D ( 'NONE', #194, #120, #218 ) ;
#150 = CC_DESIGN_PERSON_AND_ORGANIZATION_ASSIGNMENT ( #156, #89, ( #44 ) ) ;
#151 = VECTOR ( 'NONE', #146, 1000.000000000000000 ) ;
#152 = DIRECTION ( 'NONE',  ( 0.0000000000000000000, 1.000000000000000000, 0.0000000000000000000 ) ) ;
#153 = ADVANCED_FACE ( 'NONE', ( #206 ), #37, .F. ) ;
#154 = CALENDAR_DATE ( 2021, 2, 9 ) ;
#155 = CARTESIAN_POINT ( 'NONE',  ( 1.416078206041822974E-14, -4.966933728324186639E-16, 4.055809178436067697 ) ) ;
#156 = PERSON_AND_ORGANIZATION ( #291, #223 ) ;
#157 = CIRCLE ( 'NONE', #54, 5.750000000000004441 ) ;
#158 =( GEOMETRIC_REPRESENTATION_CONTEXT ( 3 ) GLOBAL_UNCERTAINTY_ASSIGNED_CONTEXT ( ( #84 ) ) GLOBAL_UNIT_ASSIGNED_CONTEXT ( ( #316, #288, #202 ) ) REPRESENTATION_CONTEXT ( 'NONE', 'WORKASPACE' ) );
#159 = DATE_TIME_ROLE ( 'creation_date' ) ;
#160 = APPROVAL_ROLE ( '' ) ;
#161 = DIRECTION ( 'NONE',  ( 4.275831445896958607E-31, 1.000000000000000000, 1.224646799147353207E-16 ) ) ;
#162 = EDGE_LOOP ( 'NONE', ( #197, #259, #73 ) ) ;
#163 = VERTEX_POINT ( 'NONE', #115 ) ;
#164 = CARTESIAN_POINT ( 'NONE',  ( 5.586370142149013368E-13, -1.959434878635765210E-14, 160.0000000000000000 ) ) ;
#165 = FACE_OUTER_BOUND ( 'NONE', #284, .T. ) ;
#166 = ORIENTED_EDGE ( 'NONE', *, *, #136, .F. ) ;
#167 = LINE ( 'NONE', #4, #95 ) ;
#168 = EDGE_LOOP ( 'NONE', ( #275, #57 ) ) ;
#169 = CARTESIAN_POINT ( 'NONE',  ( 5.586370142149013368E-13, -1.959434878635765210E-14, 160.0000000000000000 ) ) ;
#170 = LINE ( 'NONE', #148, #151 ) ;
#171 = EDGE_CURVE ( 'NONE', #138, #127, #133, .T. ) ;
#172 = VERTEX_POINT ( 'NONE', #178 ) ;
#173 = CARTESIAN_POINT ( 'NONE',  ( 5.593411861244110576E-13, -5.750000000000023981, 160.0000000000000000 ) ) ;
#174 = APPROVAL ( #122, 'UNSPECIFIED' ) ;
#175 = CARTESIAN_POINT ( 'NONE',  ( 3.770799845950584024E-13, 6.749999999999984901, 108.0000000000000000 ) ) ;
#176 = ADVANCED_FACE ( 'NONE', ( #295 ), #61, .F. ) ;
#177 = DIRECTION ( 'NONE',  ( 0.0000000000000000000, 1.000000000000000000, 0.0000000000000000000 ) ) ;
#178 = CARTESIAN_POINT ( 'NONE',  ( 5.576566777949469280E-13, -5.750000000000023981, 160.0000000000000000 ) ) ;
#179 = CIRCLE ( 'NONE', #112, 6.749999999999985789 ) ;
#180 = CC_DESIGN_DATE_AND_TIME_ASSIGNMENT ( #17, #86, ( #337 ) ) ;
#181 = FACE_OUTER_BOUND ( 'NONE', #168, .T. ) ;
#182 = DIRECTION ( 'NONE',  ( -4.275831445896958607E-31, -1.000000000000000000, -1.224646799147353207E-16 ) ) ;
#183 = AXIS2_PLACEMENT_3D ( 'NONE', #155, #325, #268 ) ;
#184 = PRODUCT_DEFINITION_FORMATION_WITH_SPECIFIED_SOURCE ( 'ANY', '', #11, .NOT_KNOWN. ) ;
#185 = ADVANCED_FACE ( 'NONE', ( #181 ), #111, .T. ) ;
#186 = DIRECTION ( 'NONE',  ( -3.491481338843133355E-15, 1.224646799147353207E-16, -1.000000000000000000 ) ) ;
#187 = CARTESIAN_POINT ( 'NONE',  ( 5.551455328760583171E-13, -1.947188410644292011E-14, 159.0000000000000284 ) ) ;
#188 = DIRECTION ( 'NONE',  ( 0.0000000000000000000, 1.000000000000000000, 0.0000000000000000000 ) ) ;
#189 = CYLINDRICAL_SURFACE ( 'NONE', #210, 6.750000000000000888 ) ;
#190 = AXIS2_PLACEMENT_3D ( 'NONE', #52, #117, #74 ) ;
#191 = DIRECTION ( 'NONE',  ( 4.275831445896958607E-31, 1.000000000000000000, 1.224646799147353207E-16 ) ) ;
#192 = ORIENTED_EDGE ( 'NONE', *, *, #130, .T. ) ;
#193 = DIRECTION ( 'NONE',  ( -3.491481338843133355E-15, 1.224646799147353207E-16, -1.000000000000000000 ) ) ;
#194 = CARTESIAN_POINT ( 'NONE',  ( 3.770799845950584024E-13, -1.322618543079141493E-14, 108.0000000000000000 ) ) ;
#195 = ORIENTED_EDGE ( 'NONE', *, *, #296, .F. ) ;
#196 = CARTESIAN_POINT ( 'NONE',  ( 0.0000000000000000000, 0.0000000000000000000, 0.0000000000000000000 ) ) ;
#197 = ORIENTED_EDGE ( 'NONE', *, *, #85, .F. ) ;
#198 = EDGE_CURVE ( 'NONE', #163, #272, #270, .T. ) ;
#199 = CONICAL_SURFACE ( 'NONE', #107, 5.750000000000004441, 0.7853981633974617127 ) ;
#200 = EDGE_LOOP ( 'NONE', ( #281, #46, #145, #166 ) ) ;
#201 = CARTESIAN_POINT ( 'NONE',  ( 8.266365894244606723E-16, -6.750000000000000888, -8.266365894244662930E-16 ) ) ;
#202 =( NAMED_UNIT ( * ) SI_UNIT ( $, .STERADIAN. ) SOLID_ANGLE_UNIT ( ) );
#203 = ADVANCED_FACE ( 'NONE', ( #13 ), #27, .T. ) ;
#204 = CLOSED_SHELL ( 'NONE', ( #248, #203, #108, #10, #185 ) ) ;
#205 = APPROVAL_PERSON_ORGANIZATION ( #329, #213, #160 ) ;
#206 = FACE_OUTER_BOUND ( 'NONE', #312, .T. ) ;
#207 = CARTESIAN_POINT ( 'NONE',  ( 5.586370142149013368E-13, 4.311809375152814074E-32, 160.0000000000000000 ) ) ;
#208 = CARTESIAN_POINT ( 'NONE',  ( 3.770799845950584024E-13, 5.061689266483748900E-32, 108.0000000000000000 ) ) ;
#209 = EDGE_CURVE ( 'NONE', #172, #71, #157, .T. ) ;
#210 = AXIS2_PLACEMENT_3D ( 'NONE', #126, #97, #191 ) ;
#211 = AXIS2_PLACEMENT_3D ( 'NONE', #164, #336, #69 ) ;
#212 = SECURITY_CLASSIFICATION_LEVEL ( 'unclassified' ) ;
#213 = APPROVAL ( #116, 'UNSPECIFIED' ) ;
#214 = AXIS2_PLACEMENT_3D ( 'NONE', #196, #231, #292 ) ;
#215 = ORIENTED_EDGE ( 'NONE', *, *, #136, .T. ) ;
#216 = DATE_AND_TIME ( #326, #298 ) ;
#217 = EDGE_CURVE ( 'NONE', #227, #251, #67, .T. ) ;
#218 = DIRECTION ( 'NONE',  ( 0.0000000000000000000, 1.000000000000000000, 0.0000000000000000000 ) ) ;
#219 = ORIENTED_EDGE ( 'NONE', *, *, #296, .T. ) ;
#220 = PERSON_AND_ORGANIZATION ( #291, #223 ) ;
#221 = DIRECTION ( 'NONE',  ( 0.0000000000000000000, 1.000000000000000000, 0.0000000000000000000 ) ) ;
#222 = AXIS2_PLACEMENT_3D ( 'NONE', #320, #109, #152 ) ;
#223 = ORGANIZATION ( 'UNSPECIFIED', 'UNSPECIFIED', '' ) ;
#224 = CARTESIAN_POINT ( 'NONE',  ( 5.586370142149013368E-13, 5.749999999999984013, 160.0000000000000000 ) ) ;
#225 = DIRECTION ( 'NONE',  ( -2.382254525458681971E-15, -0.7071067811865568986, -0.7071067811865382469 ) ) ;
#226 = CARTESIAN_POINT ( 'NONE',  ( 1.416078206041822659E-14, -6.749999999999986677, 4.055809178436066809 ) ) ;
#227 = VERTEX_POINT ( 'NONE', #175 ) ;
#228 = CC_DESIGN_PERSON_AND_ORGANIZATION_ASSIGNMENT ( #43, #239, ( #184 ) ) ;
#229 = DIRECTION ( 'NONE',  ( 0.0000000000000000000, 0.0000000000000000000, 1.000000000000000000 ) ) ;
#230 = EDGE_LOOP ( 'NONE', ( #2, #278, #79 ) ) ;
#231 = DIRECTION ( 'NONE',  ( -3.491481338843133355E-15, 1.224646799147353207E-16, -1.000000000000000000 ) ) ;
#232 = AXIS2_PLACEMENT_3D ( 'NONE', #187, #255, #308 ) ;
#233 = CARTESIAN_POINT ( 'NONE',  ( 5.551455328760583171E-13, -1.947188410644292011E-14, 159.0000000000000284 ) ) ;
#234 = CYLINDRICAL_SURFACE ( 'NONE', #214, 6.750000000000000888 ) ;
#235 = LOCAL_TIME ( 15, 22, 21.00000000000000000, #335 ) ;
#236 = DESIGN_CONTEXT ( 'detailed design', #322, 'design' ) ;
#237 = PRODUCT_DEFINITION_SHAPE ( 'NONE', 'NONE',  #44 ) ;
#238 = DIRECTION ( 'NONE',  ( 4.565167275584568823E-31, 1.000000000000000000, 1.284980352575415411E-16 ) ) ;
#239 = PERSON_AND_ORGANIZATION_ROLE ( 'creator' ) ;
#240 = VECTOR ( 'NONE', #26, 1000.000000000000000 ) ;
#241 = CONICAL_SURFACE ( 'NONE', #318, 5.750000000000004441, 0.7853981633974617127 ) ;
#242 = DIRECTION ( 'NONE',  ( 4.275831445896958607E-31, 1.000000000000000000, 1.224646799147353207E-16 ) ) ;
#243 = CALENDAR_DATE ( 2021, 2, 9 ) ;
#244 = ADVANCED_FACE ( 'NONE', ( #80 ), #234, .T. ) ;
#245 = DIRECTION ( 'NONE',  ( -3.491481338843133355E-15, 1.224646799147353207E-16, -1.000000000000000000 ) ) ;
#246 = CARTESIAN_POINT ( 'NONE',  ( 4.669393953249828662E-13, -6.750000000000011546, 108.0000000000000000 ) ) ;
#247 = LOCAL_TIME ( 15, 22, 21.00000000000000000, #132 ) ;
#248 = ADVANCED_FACE ( 'NONE', ( #29 ), #106, .T. ) ;
#249 = APPLICATION_PROTOCOL_DEFINITION ( 'international standard', 'config_control_design', 1994, #322 ) ;
#250 = CARTESIAN_POINT ( 'NONE',  ( 1.416078206041822974E-14, -4.966933728324186639E-16, 4.055809178436067697 ) ) ;
#251 = VERTEX_POINT ( 'NONE', #59 ) ;
#252 = CALENDAR_DATE ( 2021, 2, 9 ) ;
#253 = FACE_OUTER_BOUND ( 'NONE', #162, .T. ) ;
#254 = ORIENTED_EDGE ( 'NONE', *, *, #267, .F. ) ;
#255 = DIRECTION ( 'NONE',  ( -3.491481338843133355E-15, 1.224646799147353207E-16, -1.000000000000000000 ) ) ;
#256 = ORIENTED_EDGE ( 'NONE', *, *, #24, .F. ) ;
#257 = APPLICATION_PROTOCOL_DEFINITION ( 'international standard', 'config_control_design', 1994, #31 ) ;
#258 = CYLINDRICAL_SURFACE ( 'NONE', #323, 6.749999999999992006 ) ;
#259 = ORIENTED_EDGE ( 'NONE', *, *, #114, .T. ) ;
#260 = ORIENTED_EDGE ( 'NONE', *, *, #310, .F. ) ;
#261 = CARTESIAN_POINT ( 'NONE',  ( 1.416078206041822659E-14, -6.749999999999986677, 4.055809178436066809 ) ) ;
#262 = CC_DESIGN_APPROVAL ( #174, ( #337 ) ) ;
#263 = LINE ( 'NONE', #201, #327 ) ;
#264 = CIRCLE ( 'NONE', #232, 6.750000000000004441 ) ;
#265 = CARTESIAN_POINT ( 'NONE',  ( 1.416078206041822974E-14, -4.966933728324186639E-16, 4.055809178436067697 ) ) ;
#266 = DATE_AND_TIME ( #154, #300 ) ;
#267 = EDGE_CURVE ( 'NONE', #172, #143, #36, .T. ) ;
#268 = DIRECTION ( 'NONE',  ( -4.565167275584568823E-31, -1.000000000000000000, -1.284980352575415411E-16 ) ) ;
#269 = COORDINATED_UNIVERSAL_TIME_OFFSET ( 1, 0, .AHEAD. ) ;
#270 = CIRCLE ( 'NONE', #317, 6.749999999999985789 ) ;
#271 = PERSON_AND_ORGANIZATION ( #291, #223 ) ;
#272 = VERTEX_POINT ( 'NONE', #261 ) ;
#273 = PERSON_AND_ORGANIZATION ( #291, #223 ) ;
#274 = DIRECTION ( 'NONE',  ( -3.491481338843133355E-15, 1.224646799147353207E-16, -1.000000000000000000 ) ) ;
#275 = ORIENTED_EDGE ( 'NONE', *, *, #217, .F. ) ;
#276 = APPROVAL_DATE_TIME ( #96, #174 ) ;
#277 = CARTESIAN_POINT ( 'NONE',  ( 1.498741864984269515E-14, 6.749999999999984901, 4.055809178436068585 ) ) ;
#278 = ORIENTED_EDGE ( 'NONE', *, *, #85, .T. ) ;
#279 = CARTESIAN_POINT ( 'NONE',  ( 3.770799845950584024E-13, -1.322618543079141493E-14, 108.0000000000000000 ) ) ;
#280 = LINE ( 'NONE', #21, #32 ) ;
#281 = ORIENTED_EDGE ( 'NONE', *, *, #217, .T. ) ;
#282 = EDGE_CURVE ( 'NONE', #58, #138, #170, .T. ) ;
#283 = ORIENTED_EDGE ( 'NONE', *, *, #267, .T. ) ;
#284 = EDGE_LOOP ( 'NONE', ( #256, #102, #215, #121 ) ) ;
#285 = VECTOR ( 'NONE', #75, 1000.000000000000000 ) ;
#286 = LOCAL_TIME ( 15, 22, 21.00000000000000000, #269 ) ;
#287 = DIRECTION ( 'NONE',  ( -3.491481338843133355E-15, 1.224646799147353207E-16, -1.000000000000000000 ) ) ;
#288 =( NAMED_UNIT ( * ) PLANE_ANGLE_UNIT ( ) SI_UNIT ( $, .RADIAN. ) );
#289 = ORIENTED_EDGE ( 'NONE', *, *, #209, .F. ) ;
#290 = ADVANCED_FACE ( 'NONE', ( #313 ), #199, .T. ) ;
#291 = PERSON ( 'UNSPECIFIED', 'UNSPECIFIED', 'UNSPECIFIED', ('UNSPECIFIED'), ('UNSPECIFIED'), ('UNSPECIFIED') ) ;
#292 = DIRECTION ( 'NONE',  ( 4.275831445896958607E-31, 1.000000000000000000, 1.224646799147353207E-16 ) ) ;
#293 = FACE_OUTER_BOUND ( 'NONE', #100, .T. ) ;
#294 = VECTOR ( 'NONE', #225, 999.9999999999998863 ) ;
#295 = FACE_OUTER_BOUND ( 'NONE', #303, .T. ) ;
#296 = EDGE_CURVE ( 'NONE', #143, #58, #307, .T. ) ;
#297 = DIRECTION ( 'NONE',  ( 3.491481338843133355E-15, -1.224646799147353207E-16, 1.000000000000000000 ) ) ;
#298 = LOCAL_TIME ( 15, 22, 21.00000000000000000, #65 ) ;
#299 = DIRECTION ( 'NONE',  ( 3.491481338843133355E-15, -1.224646799147353207E-16, 1.000000000000000000 ) ) ;
#300 = LOCAL_TIME ( 15, 22, 21.00000000000000000, #63 ) ;
#301 = CARTESIAN_POINT ( 'NONE',  ( 3.770799845950584024E-13, 6.749999999999984901, 108.0000000000000000 ) ) ;
#302 = ORIENTED_EDGE ( 'NONE', *, *, #282, .T. ) ;
#303 = EDGE_LOOP ( 'NONE', ( #53, #289 ) ) ;
#304 = FACE_OUTER_BOUND ( 'NONE', #5, .T. ) ;
#305 = CIRCLE ( 'NONE', #149, 6.749999999999998224 ) ;
#306 = VERTEX_POINT ( 'NONE', #77 ) ;
#307 = CIRCLE ( 'NONE', #124, 6.750000000000004441 ) ;
#308 = DIRECTION ( 'NONE',  ( 0.0000000000000000000, 1.000000000000000000, 0.0000000000000000000 ) ) ;
#309 = ORIENTED_EDGE ( 'NONE', *, *, #104, .T. ) ;
#310 = EDGE_CURVE ( 'NONE', #143, #127, #263, .T. ) ;
#311 = CARTESIAN_POINT ( 'NONE',  ( 5.586370142149013368E-13, 5.749999999999984013, 160.0000000000000000 ) ) ;
#312 = EDGE_LOOP ( 'NONE', ( #76, #55 ) ) ;
#313 = FACE_OUTER_BOUND ( 'NONE', #94, .T. ) ;
#314 = DIRECTION ( 'NONE',  ( -3.491481338843133355E-15, 1.224646799147353207E-16, -1.000000000000000000 ) ) ;
#315 = ORIENTED_EDGE ( 'NONE', *, *, #70, .F. ) ;
#316 =( LENGTH_UNIT ( ) NAMED_UNIT ( * ) SI_UNIT ( .MILLI., .METRE. ) );
#317 = AXIS2_PLACEMENT_3D ( 'NONE', #265, #40, #238 ) ;
#318 = AXIS2_PLACEMENT_3D ( 'NONE', #169, #287, #60 ) ;
#319 = APPROVAL ( #332, 'UNSPECIFIED' ) ;
#320 = CARTESIAN_POINT ( 'NONE',  ( 3.770799845950584024E-13, -1.322618543079141493E-14, 108.0000000000000000 ) ) ;
#321 = DIRECTION ( 'NONE',  ( -3.491481338843133355E-15, 1.224646799147353207E-16, -1.000000000000000000 ) ) ;
#322 = APPLICATION_CONTEXT ( 'configuration controlled 3d designs of mechanical parts and assemblies' ) ;
#323 = AXIS2_PLACEMENT_3D ( 'NONE', #98, #51, #161 ) ;
#324 = PERSON_AND_ORGANIZATION_ROLE ( 'classification_officer' ) ;
#325 = DIRECTION ( 'NONE',  ( 3.491481338843133355E-15, -1.224646799147353207E-16, 1.000000000000000000 ) ) ;
#326 = CALENDAR_DATE ( 2021, 2, 9 ) ;
#327 = VECTOR ( 'NONE', #129, 1000.000000000000000 ) ;
#328 = ADVANCED_FACE ( 'NONE', ( #293 ), #241, .T. ) ;
#329 = PERSON_AND_ORGANIZATION ( #291, #223 ) ;
#330 = ORIENTED_EDGE ( 'NONE', *, *, #78, .T. ) ;
#331 = CC_DESIGN_PERSON_AND_ORGANIZATION_ASSIGNMENT ( #42, #324, ( #337 ) ) ;
#332 = APPROVAL_STATUS ( 'not_yet_approved' ) ;
#333 = ORIENTED_EDGE ( 'NONE', *, *, #209, .T. ) ;
#334 = ORIENTED_EDGE ( 'NONE', *, *, #104, .F. ) ;
#335 = COORDINATED_UNIVERSAL_TIME_OFFSET ( 1, 0, .AHEAD. ) ;
#336 = DIRECTION ( 'NONE',  ( -3.491481338843133355E-15, 1.224646799147353207E-16, -1.000000000000000000 ) ) ;
#337 = SECURITY_CLASSIFICATION ( '', '', #212 ) ;
ENDSEC;
END-ISO-10303-21;
