ISO-10303-21;
HEADER;
FILE_DESCRIPTION (( 'STEP AP203' ),
    '1' );
FILE_NAME ('40075.step',
    '2021-09-02T13:22:20',
    ( '' ),
    ( '' ),
    'SwSTEP 2.0',
    'SolidWorks 2019',
    '' );
FILE_SCHEMA (( 'CONFIG_CONTROL_DESIGN' ));
ENDSEC;

DATA;
#1 = DIRECTION ( 'NONE',  ( -3.491481338843133355E-15, 1.224646799147353207E-16, -1.000000000000000000 ) ) ;
#2 = APPLICATION_PROTOCOL_DEFINITION ( 'international standard', 'config_control_design', 1994, #286 ) ;
#3 = ORIENTED_EDGE ( 'NONE', *, *, #42, .F. ) ;
#4 = DIRECTION ( 'NONE',  ( 4.275831445896958607E-31, 1.000000000000000000, 1.224646799147352961E-16 ) ) ;
#5 = CARTESIAN_POINT ( 'NONE',  ( 2.828099884462938396E-13, -9.919639073093561200E-15, 81.00000000000000000 ) ) ;
#6 = ORIENTED_EDGE ( 'NONE', *, *, #329, .T. ) ;
#7 = CARTESIAN_POINT ( 'NONE',  ( 0.0000000000000000000, 0.0000000000000000000, 0.0000000000000000000 ) ) ;
#8 = DIRECTION ( 'NONE',  ( -3.423875456688429901E-31, -1.000000000000000000, -9.637352644315624825E-17 ) ) ;
#9 = ADVANCED_FACE ( 'NONE', ( #169 ), #111, .T. ) ;
#10 = CARTESIAN_POINT ( 'NONE',  ( 4.368882866710762097E-13, -3.700000000000016165, 125.0000000000000000 ) ) ;
#11 = DIRECTION ( 'NONE',  ( 0.0000000000000000000, 1.000000000000000000, 0.0000000000000000000 ) ) ;
#12 = ADVANCED_FACE ( 'NONE', ( #334 ), #13, .T. ) ;
#13 = CONICAL_SURFACE ( 'NONE', #66, 3.700000000000001066, 0.7853981633974516097 ) ;
#14 = SHAPE_DEFINITION_REPRESENTATION ( #114, #214 ) ;
#15 = DIRECTION ( 'NONE',  ( 0.0000000000000000000, 1.000000000000000000, 0.0000000000000000000 ) ) ;
#16 = APPROVAL_PERSON_ORGANIZATION ( #267, #331, #142 ) ;
#17 = CARTESIAN_POINT ( 'NONE',  ( 4.364351673553916568E-13, -1.530808498934191561E-14, 125.0000000000000000 ) ) ;
#18 = AXIS2_PLACEMENT_3D ( 'NONE', #248, #195, #27 ) ;
#19 = DIRECTION ( 'NONE',  ( -3.423875456688429901E-31, -1.000000000000000000, -9.637352644315624825E-17 ) ) ;
#20 = LINE ( 'NONE', #307, #59 ) ;
#21 = VERTEX_POINT ( 'NONE', #97 ) ;
#22 = ADVANCED_FACE ( 'NONE', ( #147 ), #261, .T. ) ;
#23 = DIRECTION ( 'NONE',  ( 3.491481338843133355E-15, -1.224646799147353207E-16, 1.000000000000000000 ) ) ;
#24 = DIRECTION ( 'NONE',  ( 0.0000000000000000000, 1.000000000000000000, 0.0000000000000000000 ) ) ;
#25 = LOCAL_TIME ( 15, 22, 20.00000000000000000, #98 ) ;
#26 = PERSON_AND_ORGANIZATION ( #187, #127 ) ;
#27 = DIRECTION ( 'NONE',  ( 0.0000000000000000000, 1.000000000000000000, 0.0000000000000000000 ) ) ;
#28 = DIRECTION ( 'NONE',  ( 0.0000000000000000000, 1.000000000000000000, 0.0000000000000000000 ) ) ;
#29 = DIRECTION ( 'NONE',  ( 1.000000000000000000, 0.0000000000000000000, 0.0000000000000000000 ) ) ;
#30 = CARTESIAN_POINT ( 'NONE',  ( 2.828099884462938396E-13, 4.499999999999985789, 81.00000000000000000 ) ) ;
#31 = AXIS2_PLACEMENT_3D ( 'NONE', #298, #317, #204 ) ;
#32 = CC_DESIGN_DATE_AND_TIME_ASSIGNMENT ( #162, #240, ( #67 ) ) ;
#33 = DIRECTION ( 'NONE',  ( 4.275831445896958607E-31, 1.000000000000000000, 1.224646799147353207E-16 ) ) ;
#34 = CARTESIAN_POINT ( 'NONE',  ( 9.440521373612144748E-15, -4.499999999999985789, 2.703872785624042319 ) ) ;
#35 = APPROVAL_DATE_TIME ( #239, #331 ) ;
#36 = CIRCLE ( 'NONE', #315, 4.499999999999985789 ) ;
#37 = LINE ( 'NONE', #273, #85 ) ;
#38 = DATE_AND_TIME ( #39, #128 ) ;
#39 = CALENDAR_DATE ( 2021, 2, 9 ) ;
#40 = AXIS2_PLACEMENT_3D ( 'NONE', #246, #63, #121 ) ;
#41 = CARTESIAN_POINT ( 'NONE',  ( 9.440521373612146326E-15, -3.311289152216121468E-16, 2.703872785624042763 ) ) ;
#42 = EDGE_CURVE ( 'NONE', #333, #21, #296, .T. ) ;
#43 = DIRECTION ( 'NONE',  ( -3.491481338843133355E-15, 1.224646799147353207E-16, -1.000000000000000000 ) ) ;
#44 = MANIFOLD_SOLID_BREP ( 'Corps-Déplacer/Copier1[1]', #258 ) ;
#45 = AXIS2_PLACEMENT_3D ( 'NONE', #280, #130, #199 ) ;
#46 = CARTESIAN_POINT ( 'NONE',  ( 2.828099884462938396E-13, 4.499999999999985789, 81.00000000000000000 ) ) ;
#47 = CC_DESIGN_PERSON_AND_ORGANIZATION_ASSIGNMENT ( #270, #213, ( #96 ) ) ;
#48 = CARTESIAN_POINT ( 'NONE',  ( 0.0000000000000000000, 0.0000000000000000000, 0.0000000000000000000 ) ) ;
#49 = CARTESIAN_POINT ( 'NONE',  ( 0.0000000000000000000, 0.0000000000000000000, 0.0000000000000000000 ) ) ;
#50 = VERTEX_POINT ( 'NONE', #46 ) ;
#51 = AXIS2_PLACEMENT_3D ( 'NONE', #305, #76, #277 ) ;
#52 = CALENDAR_DATE ( 2021, 2, 9 ) ;
#53 = ORIENTED_EDGE ( 'NONE', *, *, #120, .T. ) ;
#54 = CARTESIAN_POINT ( 'NONE',  ( 4.364351673553916568E-13, -1.530808498934191561E-14, 125.0000000000000000 ) ) ;
#55 = VERTEX_POINT ( 'NONE', #175 ) ;
#56 = LINE ( 'NONE', #10, #105 ) ;
#57 = EDGE_LOOP ( 'NONE', ( #330, #53, #74, #73 ) ) ;
#58 = CARTESIAN_POINT ( 'NONE',  ( 0.0000000000000000000, 0.0000000000000000000, 0.0000000000000000000 ) ) ;
#59 = VECTOR ( 'NONE', #72, 1000.000000000000000 ) ;
#60 = LOCAL_TIME ( 15, 22, 20.00000000000000000, #242 ) ;
#61 = APPLICATION_PROTOCOL_DEFINITION ( 'international standard', 'config_control_design', 1994, #122 ) ;
#62 = APPROVAL_STATUS ( 'not_yet_approved' ) ;
#63 = DIRECTION ( 'NONE',  ( 3.491481338843133355E-15, -1.224646799147353207E-16, 1.000000000000000000 ) ) ;
#64 = PERSON_AND_ORGANIZATION_ROLE ( 'classification_officer' ) ;
#65 = CARTESIAN_POINT ( 'NONE',  ( 4.336419822843171501E-13, -1.521011324541012875E-14, 124.2000000000000028 ) ) ;
#66 = AXIS2_PLACEMENT_3D ( 'NONE', #154, #227, #284 ) ;
#67 = SECURITY_CLASSIFICATION ( '', '', #136 ) ;
#68 = LINE ( 'NONE', #276, #268 ) ;
#69 = ORIENTED_EDGE ( 'NONE', *, *, #212, .T. ) ;
#70 = EDGE_CURVE ( 'NONE', #21, #289, #196, .T. ) ;
#71 = AXIS2_PLACEMENT_3D ( 'NONE', #93, #193, #100 ) ;
#72 = DIRECTION ( 'NONE',  ( 1.798245827342160317E-15, -0.8571673007021098911, 0.5150380749100582634 ) ) ;
#73 = ORIENTED_EDGE ( 'NONE', *, *, #192, .F. ) ;
#74 = ORIENTED_EDGE ( 'NONE', *, *, #107, .F. ) ;
#75 = PERSON_AND_ORGANIZATION ( #187, #127 ) ;
#76 = DIRECTION ( 'NONE',  ( 3.491481338843133355E-15, -1.224646799147353207E-16, 1.000000000000000000 ) ) ;
#77 = APPROVAL_DATE_TIME ( #232, #300 ) ;
#78 = ORIENTED_EDGE ( 'NONE', *, *, #115, .T. ) ;
#79 = PRODUCT_DEFINITION ( 'UNKNOWN', '', #96, #89 ) ;
#80 = AXIS2_PLACEMENT_3D ( 'NONE', #5, #126, #24 ) ;
#81 = CARTESIAN_POINT ( 'NONE',  ( 4.364351673553916568E-13, 3.699999999999985967, 125.0000000000000000 ) ) ;
#82 = EDGE_LOOP ( 'NONE', ( #226, #312, #314, #233 ) ) ;
#83 = EDGE_CURVE ( 'NONE', #99, #289, #20, .T. ) ;
#84 =( LENGTH_UNIT ( ) NAMED_UNIT ( * ) SI_UNIT ( .MILLI., .METRE. ) );
#85 = VECTOR ( 'NONE', #216, 1000.000000000000000 ) ;
#86 = PLANE ( 'NONE',  #197 ) ;
#87 = PERSON_AND_ORGANIZATION_ROLE ( 'design_supplier' ) ;
#88 = EDGE_CURVE ( 'NONE', #313, #55, #143, .T. ) ;
#89 = DESIGN_CONTEXT ( 'detailed design', #286, 'design' ) ;
#90 = ADVANCED_FACE ( 'NONE', ( #129 ), #231, .T. ) ;
#91 = DIRECTION ( 'NONE',  ( -3.491481338843133355E-15, 1.224646799147353207E-16, -1.000000000000000000 ) ) ;
#92 = DIRECTION ( 'NONE',  ( -3.491481338843133355E-15, 1.224646799147353207E-16, -1.000000000000000000 ) ) ;
#93 = CARTESIAN_POINT ( 'NONE',  ( 2.828099884462938396E-13, -9.919639073093561200E-15, 81.00000000000000000 ) ) ;
#94 = ORIENTED_EDGE ( 'NONE', *, *, #311, .T. ) ;
#95 = CIRCLE ( 'NONE', #206, 3.700000000000001066 ) ;
#96 = PRODUCT_DEFINITION_FORMATION_WITH_SPECIFIED_SOURCE ( 'ANY', '', #140, .NOT_KNOWN. ) ;
#97 = CARTESIAN_POINT ( 'NONE',  ( 1.466763459695689785E-13, -4.500000000000005329, 81.00000000000000000 ) ) ;
#98 = COORDINATED_UNIVERSAL_TIME_OFFSET ( 1, 0, .AHEAD. ) ;
#99 = VERTEX_POINT ( 'NONE', #49 ) ;
#100 = DIRECTION ( 'NONE',  ( 0.0000000000000000000, 1.000000000000000000, 0.0000000000000000000 ) ) ;
#101 = ORIENTED_EDGE ( 'NONE', *, *, #83, .T. ) ;
#102 = ADVANCED_FACE ( 'NONE', ( #332 ), #151, .T. ) ;
#103 = ORIENTED_EDGE ( 'NONE', *, *, #139, .T. ) ;
#104 = CARTESIAN_POINT ( 'NONE',  ( 4.364351673553916568E-13, 3.699999999999985967, 125.0000000000000000 ) ) ;
#105 = VECTOR ( 'NONE', #236, 1000.000000000000114 ) ;
#106 = FACE_OUTER_BOUND ( 'NONE', #229, .T. ) ;
#107 = EDGE_CURVE ( 'NONE', #50, #205, #244, .T. ) ;
#108 = CARTESIAN_POINT ( 'NONE',  ( 4.355406800075048150E-13, -3.700000000000016165, 125.0000000000000000 ) ) ;
#109 = APPROVAL_STATUS ( 'not_yet_approved' ) ;
#110 = LINE ( 'NONE', #81, #279 ) ;
#111 = CONICAL_SURFACE ( 'NONE', #290, 4.499999999999985789, 1.029744258676649649 ) ;
#112 = DATE_TIME_ROLE ( 'creation_date' ) ;
#113 = APPROVAL_PERSON_ORGANIZATION ( #269, #165, #160 ) ;
#114 = PRODUCT_DEFINITION_SHAPE ( 'NONE', 'NONE',  #79 ) ;
#115 = EDGE_CURVE ( 'NONE', #205, #50, #138, .T. ) ;
#116 = DIRECTION ( 'NONE',  ( -3.491481338843133355E-15, 1.224646799147353207E-16, -1.000000000000000000 ) ) ;
#117 = CALENDAR_DATE ( 2021, 2, 9 ) ;
#118 = CC_DESIGN_PERSON_AND_ORGANIZATION_ASSIGNMENT ( #141, #87, ( #96 ) ) ;
#119 = CARTESIAN_POINT ( 'NONE',  ( 9.991612433228454492E-15, 4.499999999999985789, 2.703872785624043207 ) ) ;
#120 = EDGE_CURVE ( 'NONE', #55, #205, #68, .T. ) ;
#121 = DIRECTION ( 'NONE',  ( -4.275831445896958607E-31, -1.000000000000000000, -1.224646799147353207E-16 ) ) ;
#122 = APPLICATION_CONTEXT ( 'configuration controlled 3d designs of mechanical parts and assemblies' ) ;
#123 = AXIS2_PLACEMENT_3D ( 'NONE', #323, #185, #15 ) ;
#124 = CARTESIAN_POINT ( 'NONE',  ( 9.440521373612146326E-15, -3.311289152216121468E-16, 2.703872785624042763 ) ) ;
#125 = CYLINDRICAL_SURFACE ( 'NONE', #220, 4.499999999999990230 ) ;
#126 = DIRECTION ( 'NONE',  ( -3.491481338843133355E-15, 1.224646799147353207E-16, -1.000000000000000000 ) ) ;
#127 = ORGANIZATION ( 'UNSPECIFIED', 'UNSPECIFIED', '' ) ;
#128 = LOCAL_TIME ( 15, 22, 20.00000000000000000, #221 ) ;
#129 = FACE_OUTER_BOUND ( 'NONE', #316, .T. ) ;
#130 = DIRECTION ( 'NONE',  ( -3.491481338843133355E-15, 1.224646799147353207E-16, -1.000000000000000000 ) ) ;
#131 = CALENDAR_DATE ( 2021, 2, 9 ) ;
#132 = ORIENTED_EDGE ( 'NONE', *, *, #70, .F. ) ;
#133 = DIRECTION ( 'NONE',  ( -3.491481338843133355E-15, 1.224646799147353207E-16, -1.000000000000000000 ) ) ;
#134 = EDGE_LOOP ( 'NONE', ( #306, #294, #6, #310 ) ) ;
#135 = CONICAL_SURFACE ( 'NONE', #171, 3.700000000000001066, 0.7853981633974516097 ) ;
#136 = SECURITY_CLASSIFICATION_LEVEL ( 'unclassified' ) ;
#137 = DIRECTION ( 'NONE',  ( 0.0000000000000000000, 0.0000000000000000000, 1.000000000000000000 ) ) ;
#138 = CIRCLE ( 'NONE', #71, 4.499999999999995559 ) ;
#139 = EDGE_CURVE ( 'NONE', #99, #254, #144, .T. ) ;
#140 = PRODUCT ( '40075', '40075', '', ( #293 ) ) ;
#141 = PERSON_AND_ORGANIZATION ( #187, #127 ) ;
#142 = APPROVAL_ROLE ( '' ) ;
#143 = CIRCLE ( 'NONE', #45, 4.500000000000001776 ) ;
#144 = LINE ( 'NONE', #119, #327 ) ;
#145 = EDGE_CURVE ( 'NONE', #308, #292, #95, .T. ) ;
#146 = AXIS2_PLACEMENT_3D ( 'NONE', #238, #260, #8 ) ;
#147 = FACE_OUTER_BOUND ( 'NONE', #257, .T. ) ;
#148 = EDGE_LOOP ( 'NONE', ( #223, #103, #94 ) ) ;
#149 = DIRECTION ( 'NONE',  ( -3.491481338843133355E-15, 1.224646799147353207E-16, -1.000000000000000000 ) ) ;
#150 = DATE_AND_TIME ( #52, #328 ) ;
#151 = CYLINDRICAL_SURFACE ( 'NONE', #219, 4.499999999999999112 ) ;
#152 = PERSON_AND_ORGANIZATION_ROLE ( 'design_owner' ) ;
#153 = ORIENTED_EDGE ( 'NONE', *, *, #218, .F. ) ;
#154 = CARTESIAN_POINT ( 'NONE',  ( 4.364351673553916568E-13, -1.530808498934191561E-14, 125.0000000000000000 ) ) ;
#155 = CARTESIAN_POINT ( 'NONE',  ( 9.991612433228454492E-15, 4.499999999999985789, 2.703872785624043207 ) ) ;
#156 = MANIFOLD_SOLID_BREP ( 'Corps-Déplacer/Copier1[2]', #191 ) ;
#157 = ORIENTED_EDGE ( 'NONE', *, *, #145, .F. ) ;
#158 =( GEOMETRIC_REPRESENTATION_CONTEXT ( 3 ) GLOBAL_UNCERTAINTY_ASSIGNED_CONTEXT ( ( #241 ) ) GLOBAL_UNIT_ASSIGNED_CONTEXT ( ( #84, #181, #291 ) ) REPRESENTATION_CONTEXT ( 'NONE', 'WORKASPACE' ) );
#159 = FACE_OUTER_BOUND ( 'NONE', #264, .T. ) ;
#160 = APPROVAL_ROLE ( '' ) ;
#161 = EDGE_CURVE ( 'NONE', #21, #333, #335, .T. ) ;
#162 = DATE_AND_TIME ( #188, #259 ) ;
#163 = PLANE ( 'NONE',  #40 ) ;
#164 = APPROVAL_DATE_TIME ( #38, #165 ) ;
#165 = APPROVAL ( #62, 'UNSPECIFIED' ) ;
#166 = CC_DESIGN_PERSON_AND_ORGANIZATION_ASSIGNMENT ( #318, #64, ( #67 ) ) ;
#167 = LINE ( 'NONE', #326, #302 ) ;
#168 = APPROVAL_PERSON_ORGANIZATION ( #75, #300, #336 ) ;
#169 = FACE_OUTER_BOUND ( 'NONE', #148, .T. ) ;
#170 = ORIENTED_EDGE ( 'NONE', *, *, #311, .F. ) ;
#171 = AXIS2_PLACEMENT_3D ( 'NONE', #54, #209, #11 ) ;
#172 = DIRECTION ( 'NONE',  ( 4.275831445896958607E-31, 1.000000000000000000, 1.224646799147353207E-16 ) ) ;
#173 = ORIENTED_EDGE ( 'NONE', *, *, #247, .T. ) ;
#174 = ORIENTED_EDGE ( 'NONE', *, *, #224, .F. ) ;
#175 = CARTESIAN_POINT ( 'NONE',  ( 3.587770764249216894E-13, -4.500000000000016875, 124.2000000000000028 ) ) ;
#176 = COORDINATED_UNIVERSAL_TIME_OFFSET ( 1, 0, .AHEAD. ) ;
#177 = ORIENTED_EDGE ( 'NONE', *, *, #107, .T. ) ;
#178 = AXIS2_PLACEMENT_3D ( 'NONE', #225, #92, #28 ) ;
#179 = EDGE_CURVE ( 'NONE', #55, #313, #250, .T. ) ;
#180 = ORIENTED_EDGE ( 'NONE', *, *, #224, .T. ) ;
#181 =( NAMED_UNIT ( * ) PLANE_ANGLE_UNIT ( ) SI_UNIT ( $, .RADIAN. ) );
#182 = AXIS2_PLACEMENT_3D ( 'NONE', #65, #217, #301 ) ;
#183 = ADVANCED_FACE ( 'NONE', ( #299 ), #163, .F. ) ;
#184 = DIRECTION ( 'NONE',  ( -3.491481338843133355E-15, 1.224646799147353207E-16, -1.000000000000000000 ) ) ;
#185 = DIRECTION ( 'NONE',  ( -3.491481338843133355E-15, 1.224646799147353207E-16, -1.000000000000000000 ) ) ;
#186 = AXIS2_PLACEMENT_3D ( 'NONE', #7, #184, #4 ) ;
#187 = PERSON ( 'UNSPECIFIED', 'UNSPECIFIED', 'UNSPECIFIED', ('UNSPECIFIED'), ('UNSPECIFIED'), ('UNSPECIFIED') ) ;
#188 = CALENDAR_DATE ( 2021, 2, 9 ) ;
#189 = DIRECTION ( 'NONE',  ( 0.0000000000000000000, 1.000000000000000000, 0.0000000000000000000 ) ) ;
#190 = FACE_OUTER_BOUND ( 'NONE', #200, .T. ) ;
#191 = CLOSED_SHELL ( 'NONE', ( #222, #9, #251, #90, #22 ) ) ;
#192 = EDGE_CURVE ( 'NONE', #313, #50, #37, .T. ) ;
#193 = DIRECTION ( 'NONE',  ( -3.491481338843133355E-15, 1.224646799147353207E-16, -1.000000000000000000 ) ) ;
#194 = DIRECTION ( 'NONE',  ( -3.491481338843133355E-15, 1.224646799147353207E-16, -1.000000000000000000 ) ) ;
#195 = DIRECTION ( 'NONE',  ( -3.491481338843133355E-15, 1.224646799147353207E-16, -1.000000000000000000 ) ) ;
#196 = LINE ( 'NONE', #252, #274 ) ;
#197 = AXIS2_PLACEMENT_3D ( 'NONE', #266, #133, #33 ) ;
#198 = CC_DESIGN_SECURITY_CLASSIFICATION ( #67, ( #96 ) ) ;
#199 = DIRECTION ( 'NONE',  ( 0.0000000000000000000, 1.000000000000000000, 0.0000000000000000000 ) ) ;
#200 = EDGE_LOOP ( 'NONE', ( #208, #278, #170, #153 ) ) ;
#201 = CARTESIAN_POINT ( 'NONE',  ( 0.0000000000000000000, 0.0000000000000000000, 0.0000000000000000000 ) ) ;
#202 = EDGE_LOOP ( 'NONE', ( #177, #78 ) ) ;
#203 = ORIENTED_EDGE ( 'NONE', *, *, #161, .F. ) ;
#204 = DIRECTION ( 'NONE',  ( 3.423875456688429901E-31, 1.000000000000000000, 9.637352644315624825E-17 ) ) ;
#205 = VERTEX_POINT ( 'NONE', #303 ) ;
#206 = AXIS2_PLACEMENT_3D ( 'NONE', #17, #215, #189 ) ;
#207 = CC_DESIGN_DATE_AND_TIME_ASSIGNMENT ( #150, #112, ( #79 ) ) ;
#208 = ORIENTED_EDGE ( 'NONE', *, *, #42, .T. ) ;
#209 = DIRECTION ( 'NONE',  ( -3.491481338843133355E-15, 1.224646799147353207E-16, -1.000000000000000000 ) ) ;
#210 = PRODUCT_RELATED_PRODUCT_CATEGORY ( 'detail', '', ( #140 ) ) ;
#211 = FACE_OUTER_BOUND ( 'NONE', #249, .T. ) ;
#212 = EDGE_CURVE ( 'NONE', #289, #254, #36, .T. ) ;
#213 = PERSON_AND_ORGANIZATION_ROLE ( 'creator' ) ;
#214 = ADVANCED_BREP_SHAPE_REPRESENTATION ( '40075', ( #44, #156, #319 ), #158 ) ;
#215 = DIRECTION ( 'NONE',  ( -3.491481338843133355E-15, 1.224646799147353207E-16, -1.000000000000000000 ) ) ;
#216 = DIRECTION ( 'NONE',  ( -3.491481338843133355E-15, 1.224646799147353207E-16, -1.000000000000000000 ) ) ;
#217 = DIRECTION ( 'NONE',  ( -3.491481338843133355E-15, 1.224646799147353207E-16, -1.000000000000000000 ) ) ;
#218 = EDGE_CURVE ( 'NONE', #333, #254, #167, .T. ) ;
#219 = AXIS2_PLACEMENT_3D ( 'NONE', #48, #1, #256 ) ;
#220 = AXIS2_PLACEMENT_3D ( 'NONE', #201, #91, #283 ) ;
#221 = COORDINATED_UNIVERSAL_TIME_OFFSET ( 1, 0, .AHEAD. ) ;
#222 = ADVANCED_FACE ( 'NONE', ( #190 ), #125, .T. ) ;
#223 = ORIENTED_EDGE ( 'NONE', *, *, #83, .F. ) ;
#224 = EDGE_CURVE ( 'NONE', #292, #308, #304, .T. ) ;
#225 = CARTESIAN_POINT ( 'NONE',  ( 2.828099884462938396E-13, -9.919639073093561200E-15, 81.00000000000000000 ) ) ;
#226 = ORIENTED_EDGE ( 'NONE', *, *, #120, .F. ) ;
#227 = DIRECTION ( 'NONE',  ( -3.491481338843133355E-15, 1.224646799147353207E-16, -1.000000000000000000 ) ) ;
#228 = CIRCLE ( 'NONE', #31, 4.499999999999985789 ) ;
#229 = EDGE_LOOP ( 'NONE', ( #174, #157 ) ) ;
#230 = FACE_OUTER_BOUND ( 'NONE', #82, .T. ) ;
#231 = CYLINDRICAL_SURFACE ( 'NONE', #237, 4.499999999999990230 ) ;
#232 = DATE_AND_TIME ( #131, #25 ) ;
#233 = ORIENTED_EDGE ( 'NONE', *, *, #115, .F. ) ;
#234 = CC_DESIGN_PERSON_AND_ORGANIZATION_ASSIGNMENT ( #262, #285, ( #79 ) ) ;
#235 = ORIENTED_EDGE ( 'NONE', *, *, #88, .F. ) ;
#236 = DIRECTION ( 'NONE',  ( -2.382254525458707609E-15, -0.7071067811865497932, -0.7071067811865453523 ) ) ;
#237 = AXIS2_PLACEMENT_3D ( 'NONE', #309, #194, #172 ) ;
#238 = CARTESIAN_POINT ( 'NONE',  ( 9.440521373612146326E-15, -3.311289152216121468E-16, 2.703872785624042763 ) ) ;
#239 = DATE_AND_TIME ( #117, #60 ) ;
#240 = DATE_TIME_ROLE ( 'classification_date' ) ;
#241 = UNCERTAINTY_MEASURE_WITH_UNIT (LENGTH_MEASURE( 1.000000000000000082E-05 ), #84, 'distance_accuracy_value', 'NONE');
#242 = COORDINATED_UNIVERSAL_TIME_OFFSET ( 1, 0, .AHEAD. ) ;
#243 = DIRECTION ( 'NONE',  ( 1.903218546456022717E-15, 0.8571673007021097801, 0.5150380749100585964 ) ) ;
#244 = CIRCLE ( 'NONE', #80, 4.499999999999995559 ) ;
#245 = CC_DESIGN_APPROVAL ( #331, ( #67 ) ) ;
#246 = CARTESIAN_POINT ( 'NONE',  ( 2.828099884462938396E-13, 3.374459510989161554E-32, 81.00000000000000000 ) ) ;
#247 = EDGE_CURVE ( 'NONE', #308, #55, #56, .T. ) ;
#248 = CARTESIAN_POINT ( 'NONE',  ( 4.364351673553916568E-13, -1.530808498934191561E-14, 125.0000000000000000 ) ) ;
#249 = EDGE_LOOP ( 'NONE', ( #180, #173, #235, #253 ) ) ;
#250 = CIRCLE ( 'NONE', #182, 4.500000000000001776 ) ;
#251 = ADVANCED_FACE ( 'NONE', ( #159 ), #325, .T. ) ;
#252 = CARTESIAN_POINT ( 'NONE',  ( 5.510910596163058987E-16, -4.499999999999990230, -5.510910596163096458E-16 ) ) ;
#253 = ORIENTED_EDGE ( 'NONE', *, *, #329, .F. ) ;
#254 = VERTEX_POINT ( 'NONE', #155 ) ;
#255 = ORIENTED_EDGE ( 'NONE', *, *, #161, .T. ) ;
#256 = DIRECTION ( 'NONE',  ( 4.275831445896958607E-31, 1.000000000000000000, 1.224646799147352961E-16 ) ) ;
#257 = EDGE_LOOP ( 'NONE', ( #3, #203 ) ) ;
#258 = CLOSED_SHELL ( 'NONE', ( #295, #102, #183, #272, #12, #287 ) ) ;
#259 = LOCAL_TIME ( 15, 22, 20.00000000000000000, #321 ) ;
#260 = DIRECTION ( 'NONE',  ( 3.491481338843133355E-15, -1.224646799147353207E-16, 1.000000000000000000 ) ) ;
#261 = PLANE ( 'NONE',  #51 ) ;
#262 = PERSON_AND_ORGANIZATION ( #187, #127 ) ;
#263 = ORIENTED_EDGE ( 'NONE', *, *, #212, .F. ) ;
#264 = EDGE_LOOP ( 'NONE', ( #282, #101, #69 ) ) ;
#265 = CARTESIAN_POINT ( 'NONE',  ( 4.336419822843171501E-13, 4.499999999999985789, 124.2000000000000028 ) ) ;
#266 = CARTESIAN_POINT ( 'NONE',  ( 4.364351673553916568E-13, 2.774555597924414679E-32, 125.0000000000000000 ) ) ;
#267 = PERSON_AND_ORGANIZATION ( #187, #127 ) ;
#268 = VECTOR ( 'NONE', #43, 1000.000000000000000 ) ;
#269 = PERSON_AND_ORGANIZATION ( #187, #127 ) ;
#270 = PERSON_AND_ORGANIZATION ( #187, #127 ) ;
#271 = DIRECTION ( 'NONE',  ( 3.423875456688429901E-31, 1.000000000000000000, 9.637352644315624825E-17 ) ) ;
#272 = ADVANCED_FACE ( 'NONE', ( #230 ), #320, .T. ) ;
#273 = CARTESIAN_POINT ( 'NONE',  ( 1.924124150653630935E-30, 4.499999999999999112, 5.510910596163087583E-16 ) ) ;
#274 = VECTOR ( 'NONE', #149, 1000.000000000000000 ) ;
#275 = CC_DESIGN_APPROVAL ( #300, ( #79 ) ) ;
#276 = CARTESIAN_POINT ( 'NONE',  ( 5.510910596163069834E-16, -4.499999999999999112, -5.510910596163107305E-16 ) ) ;
#277 = DIRECTION ( 'NONE',  ( -4.275831445896958607E-31, -1.000000000000000000, -1.224646799147353207E-16 ) ) ;
#278 = ORIENTED_EDGE ( 'NONE', *, *, #70, .T. ) ;
#279 = VECTOR ( 'NONE', #297, 1000.000000000000114 ) ;
#280 = CARTESIAN_POINT ( 'NONE',  ( 4.336419822843171501E-13, -1.521011324541012875E-14, 124.2000000000000028 ) ) ;
#281 = APPROVAL_STATUS ( 'not_yet_approved' ) ;
#282 = ORIENTED_EDGE ( 'NONE', *, *, #139, .F. ) ;
#283 = DIRECTION ( 'NONE',  ( 4.275831445896958607E-31, 1.000000000000000000, 1.224646799147353207E-16 ) ) ;
#284 = DIRECTION ( 'NONE',  ( 0.0000000000000000000, 1.000000000000000000, 0.0000000000000000000 ) ) ;
#285 = PERSON_AND_ORGANIZATION_ROLE ( 'creator' ) ;
#286 = APPLICATION_CONTEXT ( 'configuration controlled 3d designs of mechanical parts and assemblies' ) ;
#287 = ADVANCED_FACE ( 'NONE', ( #106 ), #86, .F. ) ;
#288 = ORIENTED_EDGE ( 'NONE', *, *, #218, .T. ) ;
#289 = VERTEX_POINT ( 'NONE', #34 ) ;
#290 = AXIS2_PLACEMENT_3D ( 'NONE', #124, #23, #19 ) ;
#291 =( NAMED_UNIT ( * ) SI_UNIT ( $, .STERADIAN. ) SOLID_ANGLE_UNIT ( ) );
#292 = VERTEX_POINT ( 'NONE', #104 ) ;
#293 = MECHANICAL_CONTEXT ( 'NONE', #122, 'mechanical' ) ;
#294 = ORIENTED_EDGE ( 'NONE', *, *, #145, .T. ) ;
#295 = ADVANCED_FACE ( 'NONE', ( #211 ), #135, .T. ) ;
#296 = CIRCLE ( 'NONE', #178, 4.499999999999995559 ) ;
#297 = DIRECTION ( 'NONE',  ( -2.468850131082256666E-15, 0.7071067811865500152, -0.7071067811865451302 ) ) ;
#298 = CARTESIAN_POINT ( 'NONE',  ( 9.440521373612146326E-15, -3.311289152216121468E-16, 2.703872785624042763 ) ) ;
#299 = FACE_OUTER_BOUND ( 'NONE', #202, .T. ) ;
#300 = APPROVAL ( #281, 'UNSPECIFIED' ) ;
#301 = DIRECTION ( 'NONE',  ( 0.0000000000000000000, 1.000000000000000000, 0.0000000000000000000 ) ) ;
#302 = VECTOR ( 'NONE', #324, 1000.000000000000000 ) ;
#303 = CARTESIAN_POINT ( 'NONE',  ( 3.587770764249217399E-13, -4.500000000000004441, 81.00000000000000000 ) ) ;
#304 = CIRCLE ( 'NONE', #18, 3.700000000000001066 ) ;
#305 = CARTESIAN_POINT ( 'NONE',  ( 2.828099884462938396E-13, 3.374459510989161554E-32, 81.00000000000000000 ) ) ;
#306 = ORIENTED_EDGE ( 'NONE', *, *, #247, .F. ) ;
#307 = CARTESIAN_POINT ( 'NONE',  ( 9.440521373612144748E-15, -4.499999999999985789, 2.703872785624042319 ) ) ;
#308 = VERTEX_POINT ( 'NONE', #108 ) ;
#309 = CARTESIAN_POINT ( 'NONE',  ( 0.0000000000000000000, 0.0000000000000000000, 0.0000000000000000000 ) ) ;
#310 = ORIENTED_EDGE ( 'NONE', *, *, #179, .F. ) ;
#311 = EDGE_CURVE ( 'NONE', #254, #289, #228, .T. ) ;
#312 = ORIENTED_EDGE ( 'NONE', *, *, #179, .T. ) ;
#313 = VERTEX_POINT ( 'NONE', #265 ) ;
#314 = ORIENTED_EDGE ( 'NONE', *, *, #192, .T. ) ;
#315 = AXIS2_PLACEMENT_3D ( 'NONE', #41, #116, #271 ) ;
#316 = EDGE_LOOP ( 'NONE', ( #132, #255, #288, #263 ) ) ;
#317 = DIRECTION ( 'NONE',  ( -3.491481338843133355E-15, 1.224646799147353207E-16, -1.000000000000000000 ) ) ;
#318 = PERSON_AND_ORGANIZATION ( #187, #127 ) ;
#319 = AXIS2_PLACEMENT_3D ( 'NONE', #58, #137, #29 ) ;
#320 = CYLINDRICAL_SURFACE ( 'NONE', #186, 4.499999999999999112 ) ;
#321 = COORDINATED_UNIVERSAL_TIME_OFFSET ( 1, 0, .AHEAD. ) ;
#322 = CC_DESIGN_PERSON_AND_ORGANIZATION_ASSIGNMENT ( #26, #152, ( #140 ) ) ;
#323 = CARTESIAN_POINT ( 'NONE',  ( 2.828099884462938396E-13, -9.919639073093561200E-15, 81.00000000000000000 ) ) ;
#324 = DIRECTION ( 'NONE',  ( -3.491481338843133355E-15, 1.224646799147353207E-16, -1.000000000000000000 ) ) ;
#325 = CONICAL_SURFACE ( 'NONE', #146, 4.499999999999985789, 1.029744258676649649 ) ;
#326 = CARTESIAN_POINT ( 'NONE',  ( 1.924124150653627081E-30, 4.499999999999990230, 5.510910596163077723E-16 ) ) ;
#327 = VECTOR ( 'NONE', #243, 999.9999999999998863 ) ;
#328 = LOCAL_TIME ( 15, 22, 20.00000000000000000, #176 ) ;
#329 = EDGE_CURVE ( 'NONE', #292, #313, #110, .T. ) ;
#330 = ORIENTED_EDGE ( 'NONE', *, *, #88, .T. ) ;
#331 = APPROVAL ( #109, 'UNSPECIFIED' ) ;
#332 = FACE_OUTER_BOUND ( 'NONE', #57, .T. ) ;
#333 = VERTEX_POINT ( 'NONE', #30 ) ;
#334 = FACE_OUTER_BOUND ( 'NONE', #134, .T. ) ;
#335 = CIRCLE ( 'NONE', #123, 4.499999999999995559 ) ;
#336 = APPROVAL_ROLE ( '' ) ;
#337 = CC_DESIGN_APPROVAL ( #165, ( #96 ) ) ;
ENDSEC;
END-ISO-10303-21;
