ISO-10303-21;
HEADER;
FILE_DESCRIPTION (( 'STEP AP203' ),
    '1' );
FILE_NAME ('40073.step',
    '2021-09-02T13:22:19',
    ( '' ),
    ( '' ),
    'SwSTEP 2.0',
    'SolidWorks 2019',
    '' );
FILE_SCHEMA (( 'CONFIG_CONTROL_DESIGN' ));
ENDSEC;

DATA;
#1 = COORDINATED_UNIVERSAL_TIME_OFFSET ( 1, 0, .AHEAD. ) ;
#2 = FACE_OUTER_BOUND ( 'NONE', #18, .T. ) ;
#3 = VERTEX_POINT ( 'NONE', #208 ) ;
#4 = DIRECTION ( 'NONE',  ( 4.275831445896959482E-31, 1.000000000000000000, 1.224646799147353207E-16 ) ) ;
#5 = ORIENTED_EDGE ( 'NONE', *, *, #219, .T. ) ;
#6 = CIRCLE ( 'NONE', #122, 4.000000000000000888 ) ;
#7 = ORIENTED_EDGE ( 'NONE', *, *, #103, .T. ) ;
#8 = EDGE_CURVE ( 'NONE', #243, #323, #252, .T. ) ;
#9 = DIRECTION ( 'NONE',  ( 3.491481338843133355E-15, -1.224646799147353454E-16, 1.000000000000000000 ) ) ;
#10 = LINE ( 'NONE', #99, #296 ) ;
#11 = EDGE_CURVE ( 'NONE', #323, #243, #324, .T. ) ;
#12 = CARTESIAN_POINT ( 'NONE',  ( 8.391574554321903813E-15, -2.943368135303218590E-16, 2.403442476110259296 ) ) ;
#13 = COORDINATED_UNIVERSAL_TIME_OFFSET ( 1, 0, .AHEAD. ) ;
#14 = DESIGN_CONTEXT ( 'detailed design', #322, 'design' ) ;
#15 = DATE_AND_TIME ( #148, #109 ) ;
#16 = APPROVAL_DATE_TIME ( #307, #229 ) ;
#17 = APPROVAL_PERSON_ORGANIZATION ( #255, #125, #70 ) ;
#18 = EDGE_LOOP ( 'NONE', ( #211, #254 ) ) ;
#19 = DIRECTION ( 'NONE',  ( 0.0000000000000000000, 0.0000000000000000000, 1.000000000000000000 ) ) ;
#20 = ORIENTED_EDGE ( 'NONE', *, *, #8, .T. ) ;
#21 = DIRECTION ( 'NONE',  ( 3.851859888774483967E-31, 1.000000000000000000, 1.084202172485507885E-16 ) ) ;
#22 = CLOSED_SHELL ( 'NONE', ( #221, #209, #266, #332, #279, #41 ) ) ;
#23 = DIRECTION ( 'NONE',  ( -3.491481338843133355E-15, 1.224646799147353454E-16, -1.000000000000000000 ) ) ;
#24 = EDGE_CURVE ( 'NONE', #243, #3, #171, .T. ) ;
#25 = ORIENTED_EDGE ( 'NONE', *, *, #24, .T. ) ;
#26 = APPROVAL_STATUS ( 'not_yet_approved' ) ;
#27 = PERSON_AND_ORGANIZATION_ROLE ( 'design_owner' ) ;
#28 = CARTESIAN_POINT ( 'NONE',  ( 4.085033166446466404E-13, -1.432836755002403758E-14, 117.0000000000000000 ) ) ;
#29 = DIRECTION ( 'NONE',  ( 0.0000000000000000000, 1.000000000000000000, 0.0000000000000000000 ) ) ;
#30 = DIRECTION ( 'NONE',  ( -3.491481338843133355E-15, 1.224646799147353454E-16, -1.000000000000000000 ) ) ;
#31 = CIRCLE ( 'NONE', #304, 3.999999999999996447 ) ;
#32 = DIRECTION ( 'NONE',  ( -3.491481338843133355E-15, 1.224646799147353454E-16, -1.000000000000000000 ) ) ;
#33 = DIRECTION ( 'NONE',  ( 3.851859888774483967E-31, 1.000000000000000000, 1.084202172485507885E-16 ) ) ;
#34 = DATE_AND_TIME ( #292, #297 ) ;
#35 = CONICAL_SURFACE ( 'NONE', #244, 3.999999999999987121, 1.029744258676649871 ) ;
#36 = ORIENTED_EDGE ( 'NONE', *, *, #245, .T. ) ;
#37 = COORDINATED_UNIVERSAL_TIME_OFFSET ( 1, 0, .AHEAD. ) ;
#38 = VECTOR ( 'NONE', #333, 1000.000000000000000 ) ;
#39 = AXIS2_PLACEMENT_3D ( 'NONE', #162, #335, #272 ) ;
#40 = ORIENTED_EDGE ( 'NONE', *, *, #174, .F. ) ;
#41 = ADVANCED_FACE ( 'NONE', ( #120 ), #281, .F. ) ;
#42 = CARTESIAN_POINT ( 'NONE',  ( 4.057101315735721337E-13, -1.423039580609224757E-14, 116.2000000000000171 ) ) ;
#43 = DIRECTION ( 'NONE',  ( -3.491481338843133355E-15, 1.224646799147353454E-16, -1.000000000000000000 ) ) ;
#44 = PRODUCT_DEFINITION ( 'UNKNOWN', '', #314, #14 ) ;
#45 = VERTEX_POINT ( 'NONE', #96 ) ;
#46 = DIRECTION ( 'NONE',  ( 0.0000000000000000000, 1.000000000000000000, 0.0000000000000000000 ) ) ;
#47 = CONICAL_SURFACE ( 'NONE', #224, 3.999999999999987121, 1.029744258676649871 ) ;
#48 = CALENDAR_DATE ( 2021, 2, 9 ) ;
#49 = DIRECTION ( 'NONE',  ( 0.0000000000000000000, 1.000000000000000000, 0.0000000000000000000 ) ) ;
#50 = FACE_OUTER_BOUND ( 'NONE', #54, .T. ) ;
#51 = CARTESIAN_POINT ( 'NONE',  ( 8.881433273980845983E-15, 3.999999999999987121, 2.403442476110259740 ) ) ;
#52 = VERTEX_POINT ( 'NONE', #257 ) ;
#53 = DIRECTION ( 'NONE',  ( 4.275831445896959482E-31, 1.000000000000000000, 1.224646799147353454E-16 ) ) ;
#54 = EDGE_LOOP ( 'NONE', ( #187, #158 ) ) ;
#55 = AXIS2_PLACEMENT_3D ( 'NONE', #28, #73, #29 ) ;
#56 = CARTESIAN_POINT ( 'NONE',  ( 8.391574554321903813E-15, -2.943368135303218590E-16, 2.403442476110259296 ) ) ;
#57 = DATE_TIME_ROLE ( 'classification_date' ) ;
#58 = ORIENTED_EDGE ( 'NONE', *, *, #92, .T. ) ;
#59 = PERSON_AND_ORGANIZATION ( #268, #172 ) ;
#60 = PRODUCT_RELATED_PRODUCT_CATEGORY ( 'detail', '', ( #300 ) ) ;
#61 = VERTEX_POINT ( 'NONE', #286 ) ;
#62 = APPLICATION_PROTOCOL_DEFINITION ( 'international standard', 'config_control_design', 1994, #299 ) ;
#63 = CLOSED_SHELL ( 'NONE', ( #309, #85, #180, #285, #66 ) ) ;
#64 = DIRECTION ( 'NONE',  ( -3.491481338843133355E-15, 1.224646799147353454E-16, -1.000000000000000000 ) ) ;
#65 = DIRECTION ( 'NONE',  ( 3.491481338843133355E-15, -1.224646799147353454E-16, 1.000000000000000000 ) ) ;
#66 = ADVANCED_FACE ( 'NONE', ( #50 ), #94, .T. ) ;
#67 = FACE_OUTER_BOUND ( 'NONE', #318, .T. ) ;
#68 = AXIS2_PLACEMENT_3D ( 'NONE', #95, #308, #197 ) ;
#69 = CARTESIAN_POINT ( 'NONE',  ( 2.618611004132350143E-13, -9.184850993605150311E-15, 75.00000000000000000 ) ) ;
#70 = APPROVAL_ROLE ( '' ) ;
#71 = APPROVAL_STATUS ( 'not_yet_approved' ) ;
#72 = DIRECTION ( 'NONE',  ( -3.491481338843133355E-15, 1.224646799147353454E-16, -1.000000000000000000 ) ) ;
#73 = DIRECTION ( 'NONE',  ( -3.491481338843133355E-15, 1.224646799147353454E-16, -1.000000000000000000 ) ) ;
#74 = CC_DESIGN_PERSON_AND_ORGANIZATION_ASSIGNMENT ( #310, #168, ( #44 ) ) ;
#75 = FACE_OUTER_BOUND ( 'NONE', #111, .T. ) ;
#76 = ORIENTED_EDGE ( 'NONE', *, *, #11, .T. ) ;
#77 = EDGE_CURVE ( 'NONE', #3, #106, #271, .T. ) ;
#78 = EDGE_LOOP ( 'NONE', ( #283, #76, #25, #40 ) ) ;
#79 = AXIS2_PLACEMENT_3D ( 'NONE', #192, #43, #193 ) ;
#80 = CC_DESIGN_SECURITY_CLASSIFICATION ( #331, ( #314 ) ) ;
#81 = CARTESIAN_POINT ( 'NONE',  ( 4.057101315735721337E-13, -1.423039580609224757E-14, 116.2000000000000171 ) ) ;
#82 = APPROVAL_DATE_TIME ( #15, #303 ) ;
#83 = CC_DESIGN_PERSON_AND_ORGANIZATION_ASSIGNMENT ( #151, #84, ( #314 ) ) ;
#84 = PERSON_AND_ORGANIZATION_ROLE ( 'creator' ) ;
#85 = ADVANCED_FACE ( 'NONE', ( #75 ), #35, .T. ) ;
#86 = VECTOR ( 'NONE', #305, 1000.000000000000000 ) ;
#87 = ORIENTED_EDGE ( 'NONE', *, *, #103, .F. ) ;
#88 = CARTESIAN_POINT ( 'NONE',  ( 4.075475969568024185E-13, -3.200000000000015721, 117.0000000000000000 ) ) ;
#89 = APPROVAL_DATE_TIME ( #118, #125 ) ;
#90 = DIRECTION ( 'NONE',  ( 0.0000000000000000000, 1.000000000000000000, 0.0000000000000000000 ) ) ;
#91 = FACE_OUTER_BOUND ( 'NONE', #78, .T. ) ;
#92 = EDGE_CURVE ( 'NONE', #3, #45, #173, .T. ) ;
#93 = PLANE ( 'NONE',  #117 ) ;
#94 = PLANE ( 'NONE',  #287 ) ;
#95 = CARTESIAN_POINT ( 'NONE',  ( 4.085033166446466404E-13, -1.432836755002403758E-14, 117.0000000000000000 ) ) ;
#96 = CARTESIAN_POINT ( 'NONE',  ( 2.618611004132350143E-13, 3.999999999999987121, 75.00000000000000000 ) ) ;
#97 = CC_DESIGN_PERSON_AND_ORGANIZATION_ASSIGNMENT ( #277, #27, ( #300 ) ) ;
#98 = DIRECTION ( 'NONE',  ( -3.851859888774483967E-31, -1.000000000000000000, -1.084202172485507885E-16 ) ) ;
#99 = CARTESIAN_POINT ( 'NONE',  ( 4.898587196589394093E-16, -3.999999999999998224, -4.898587196589428606E-16 ) ) ;
#100 = AXIS2_PLACEMENT_3D ( 'NONE', #12, #64, #21 ) ;
#101 = LOCAL_TIME ( 15, 22, 19.00000000000000000, #1 ) ;
#102 = APPROVAL_STATUS ( 'not_yet_approved' ) ;
#103 = EDGE_CURVE ( 'NONE', #176, #198, #146, .T. ) ;
#104 = ORIENTED_EDGE ( 'NONE', *, *, #190, .F. ) ;
#105 = CC_DESIGN_PERSON_AND_ORGANIZATION_ASSIGNMENT ( #59, #263, ( #314 ) ) ;
#106 = VERTEX_POINT ( 'NONE', #235 ) ;
#107 = AXIS2_PLACEMENT_3D ( 'NONE', #199, #275, #90 ) ;
#108 = CARTESIAN_POINT ( 'NONE',  ( 8.391574554321902235E-15, -3.999999999999987121, 2.403442476110258852 ) ) ;
#109 = LOCAL_TIME ( 15, 22, 19.00000000000000000, #13 ) ;
#110 = EDGE_CURVE ( 'NONE', #106, #182, #10, .T. ) ;
#111 = EDGE_LOOP ( 'NONE', ( #334, #36, #7 ) ) ;
#112 = AXIS2_PLACEMENT_3D ( 'NONE', #69, #72, #46 ) ;
#113 = AXIS2_PLACEMENT_3D ( 'NONE', #311, #258, #49 ) ;
#114 = ORIENTED_EDGE ( 'NONE', *, *, #214, .T. ) ;
#115 = DIRECTION ( 'NONE',  ( 0.0000000000000000000, 1.000000000000000000, 0.0000000000000000000 ) ) ;
#116 = APPROVAL_ROLE ( '' ) ;
#117 = AXIS2_PLACEMENT_3D ( 'NONE', #143, #166, #280 ) ;
#118 = DATE_AND_TIME ( #337, #101 ) ;
#119 = LINE ( 'NONE', #250, #86 ) ;
#120 = FACE_OUTER_BOUND ( 'NONE', #294, .T. ) ;
#121 = FACE_OUTER_BOUND ( 'NONE', #200, .T. ) ;
#122 = AXIS2_PLACEMENT_3D ( 'NONE', #42, #149, #327 ) ;
#123 = DIRECTION ( 'NONE',  ( 4.275831445896959482E-31, 1.000000000000000000, 1.224646799147353454E-16 ) ) ;
#124 = PERSON_AND_ORGANIZATION_ROLE ( 'classification_officer' ) ;
#125 = APPROVAL ( #71, 'UNSPECIFIED' ) ;
#126 = APPROVAL_ROLE ( '' ) ;
#127 = UNCERTAINTY_MEASURE_WITH_UNIT (LENGTH_MEASURE( 1.000000000000000082E-05 ), #269, 'distance_accuracy_value', 'NONE');
#128 =( GEOMETRIC_REPRESENTATION_CONTEXT ( 3 ) GLOBAL_UNCERTAINTY_ASSIGNED_CONTEXT ( ( #127 ) ) GLOBAL_UNIT_ASSIGNED_CONTEXT ( ( #269, #188, #191 ) ) REPRESENTATION_CONTEXT ( 'NONE', 'WORKASPACE' ) );
#129 = PRODUCT_DEFINITION_SHAPE ( 'NONE', 'NONE',  #44 ) ;
#130 = CARTESIAN_POINT ( 'NONE',  ( 8.391574554321902235E-15, -3.999999999999987121, 2.403442476110258852 ) ) ;
#131 = EDGE_CURVE ( 'NONE', #61, #52, #132, .T. ) ;
#132 = CIRCLE ( 'NONE', #79, 3.999999999999996447 ) ;
#133 = AXIS2_PLACEMENT_3D ( 'NONE', #222, #19, #217 ) ;
#134 = DIRECTION ( 'NONE',  ( 4.275831445896959482E-31, 1.000000000000000000, 1.224646799147353454E-16 ) ) ;
#135 = ORIENTED_EDGE ( 'NONE', *, *, #131, .T. ) ;
#136 = COORDINATED_UNIVERSAL_TIME_OFFSET ( 1, 0, .AHEAD. ) ;
#137 = COORDINATED_UNIVERSAL_TIME_OFFSET ( 1, 0, .AHEAD. ) ;
#138 = CARTESIAN_POINT ( 'NONE',  ( 4.085033166446466404E-13, 3.199999999999987299, 117.0000000000000000 ) ) ;
#139 = AXIS2_PLACEMENT_3D ( 'NONE', #140, #30, #123 ) ;
#140 = CARTESIAN_POINT ( 'NONE',  ( 4.085033166446466404E-13, 2.399615652258953014E-32, 117.0000000000000000 ) ) ;
#141 = CARTESIAN_POINT ( 'NONE',  ( 0.0000000000000000000, 0.0000000000000000000, 0.0000000000000000000 ) ) ;
#142 = DIRECTION ( 'NONE',  ( 0.0000000000000000000, 1.000000000000000000, 0.0000000000000000000 ) ) ;
#143 = CARTESIAN_POINT ( 'NONE',  ( 2.618611004132350143E-13, 2.999519565323699889E-32, 75.00000000000000000 ) ) ;
#144 = DIRECTION ( 'NONE',  ( 3.491481338843133355E-15, -1.224646799147353454E-16, 1.000000000000000000 ) ) ;
#145 = CARTESIAN_POINT ( 'NONE',  ( 4.085033166446466404E-13, 3.199999999999987299, 117.0000000000000000 ) ) ;
#146 = CIRCLE ( 'NONE', #293, 3.999999999999987121 ) ;
#147 = DIRECTION ( 'NONE',  ( -3.491481338843133355E-15, 1.224646799147353454E-16, -1.000000000000000000 ) ) ;
#148 = CALENDAR_DATE ( 2021, 2, 9 ) ;
#149 = DIRECTION ( 'NONE',  ( -3.491481338843133355E-15, 1.224646799147353454E-16, -1.000000000000000000 ) ) ;
#150 = EDGE_CURVE ( 'NONE', #52, #176, #301, .T. ) ;
#151 = PERSON_AND_ORGANIZATION ( #268, #172 ) ;
#152 = AXIS2_PLACEMENT_3D ( 'NONE', #141, #256, #4 ) ;
#153 = PERSON_AND_ORGANIZATION ( #268, #172 ) ;
#154 = EDGE_LOOP ( 'NONE', ( #317, #212, #230 ) ) ;
#155 = SHAPE_DEFINITION_REPRESENTATION ( #129, #247 ) ;
#156 = EDGE_CURVE ( 'NONE', #61, #198, #270, .T. ) ;
#157 = CC_DESIGN_DATE_AND_TIME_ASSIGNMENT ( #34, #57, ( #331 ) ) ;
#158 = ORIENTED_EDGE ( 'NONE', *, *, #131, .F. ) ;
#159 = CIRCLE ( 'NONE', #107, 3.999999999999996447 ) ;
#160 = FACE_OUTER_BOUND ( 'NONE', #154, .T. ) ;
#161 = LINE ( 'NONE', #108, #325 ) ;
#162 = CARTESIAN_POINT ( 'NONE',  ( 0.0000000000000000000, 0.0000000000000000000, 0.0000000000000000000 ) ) ;
#163 = CIRCLE ( 'NONE', #112, 3.999999999999996447 ) ;
#164 = ORIENTED_EDGE ( 'NONE', *, *, #110, .T. ) ;
#165 = DATE_TIME_ROLE ( 'creation_date' ) ;
#166 = DIRECTION ( 'NONE',  ( 3.491481338843133355E-15, -1.224646799147353454E-16, 1.000000000000000000 ) ) ;
#167 = CYLINDRICAL_SURFACE ( 'NONE', #232, 3.999999999999998224 ) ;
#168 = PERSON_AND_ORGANIZATION_ROLE ( 'creator' ) ;
#169 = DIRECTION ( 'NONE',  ( 1.798245827342159528E-15, -0.8571673007021100021, 0.5150380749100580413 ) ) ;
#170 = VECTOR ( 'NONE', #234, 1000.000000000000000 ) ;
#171 = LINE ( 'NONE', #145, #170 ) ;
#172 = ORGANIZATION ( 'UNSPECIFIED', 'UNSPECIFIED', '' ) ;
#173 = LINE ( 'NONE', #177, #183 ) ;
#174 = EDGE_CURVE ( 'NONE', #106, #3, #6, .T. ) ;
#175 = CYLINDRICAL_SURFACE ( 'NONE', #336, 3.999999999999998224 ) ;
#176 = VERTEX_POINT ( 'NONE', #298 ) ;
#177 = CARTESIAN_POINT ( 'NONE',  ( 1.710332578358783092E-30, 3.999999999999998224, 4.898587196589411843E-16 ) ) ;
#178 = VECTOR ( 'NONE', #218, 1000.000000000000000 ) ;
#179 = CC_DESIGN_APPROVAL ( #125, ( #44 ) ) ;
#180 = ADVANCED_FACE ( 'NONE', ( #160 ), #47, .T. ) ;
#181 = DIRECTION ( 'NONE',  ( -3.491481338843133355E-15, 1.224646799147353454E-16, -1.000000000000000000 ) ) ;
#182 = VERTEX_POINT ( 'NONE', #242 ) ;
#183 = VECTOR ( 'NONE', #288, 1000.000000000000000 ) ;
#184 = MANIFOLD_SOLID_BREP ( 'Corps-Déplacer/Copier1[2]', #63 ) ;
#185 = CC_DESIGN_PERSON_AND_ORGANIZATION_ASSIGNMENT ( #153, #124, ( #331 ) ) ;
#186 = EDGE_LOOP ( 'NONE', ( #290, #240, #58, #321 ) ) ;
#187 = ORIENTED_EDGE ( 'NONE', *, *, #214, .F. ) ;
#188 =( NAMED_UNIT ( * ) PLANE_ANGLE_UNIT ( ) SI_UNIT ( $, .RADIAN. ) );
#189 = APPROVAL_PERSON_ORGANIZATION ( #274, #229, #116 ) ;
#190 = EDGE_CURVE ( 'NONE', #198, #176, #238, .T. ) ;
#191 =( NAMED_UNIT ( * ) SI_UNIT ( $, .STERADIAN. ) SOLID_ANGLE_UNIT ( ) );
#192 = CARTESIAN_POINT ( 'NONE',  ( 2.618611004132350143E-13, -9.184850993605150311E-15, 75.00000000000000000 ) ) ;
#193 = DIRECTION ( 'NONE',  ( 0.0000000000000000000, 1.000000000000000000, 0.0000000000000000000 ) ) ;
#194 = ORIENTED_EDGE ( 'NONE', *, *, #150, .T. ) ;
#195 = CC_DESIGN_APPROVAL ( #229, ( #314 ) ) ;
#196 = CALENDAR_DATE ( 2021, 2, 9 ) ;
#197 = DIRECTION ( 'NONE',  ( 0.0000000000000000000, 1.000000000000000000, 0.0000000000000000000 ) ) ;
#198 = VERTEX_POINT ( 'NONE', #130 ) ;
#199 = CARTESIAN_POINT ( 'NONE',  ( 2.618611004132350143E-13, -9.184850993605150311E-15, 75.00000000000000000 ) ) ;
#200 = EDGE_LOOP ( 'NONE', ( #213, #164, #265, #248 ) ) ;
#201 = FACE_OUTER_BOUND ( 'NONE', #226, .T. ) ;
#202 = AXIS2_PLACEMENT_3D ( 'NONE', #81, #32, #315 ) ;
#203 = CARTESIAN_POINT ( 'NONE',  ( 2.618611004132350143E-13, 2.999519565323699889E-32, 75.00000000000000000 ) ) ;
#204 = CC_DESIGN_APPROVAL ( #303, ( #331 ) ) ;
#205 = EDGE_CURVE ( 'NONE', #289, #198, #161, .T. ) ;
#206 = CARTESIAN_POINT ( 'NONE',  ( 0.0000000000000000000, 0.0000000000000000000, 0.0000000000000000000 ) ) ;
#207 = CARTESIAN_POINT ( 'NONE',  ( 8.391574554321903813E-15, -2.943368135303218590E-16, 2.403442476110259296 ) ) ;
#208 = CARTESIAN_POINT ( 'NONE',  ( 4.057101315735721337E-13, 3.999999999999987121, 116.2000000000000171 ) ) ;
#209 = ADVANCED_FACE ( 'NONE', ( #121 ), #167, .T. ) ;
#210 = SECURITY_CLASSIFICATION_LEVEL ( 'unclassified' ) ;
#211 = ORIENTED_EDGE ( 'NONE', *, *, #241, .T. ) ;
#212 = ORIENTED_EDGE ( 'NONE', *, *, #205, .T. ) ;
#213 = ORIENTED_EDGE ( 'NONE', *, *, #77, .T. ) ;
#214 = EDGE_CURVE ( 'NONE', #52, #61, #163, .T. ) ;
#215 = VECTOR ( 'NONE', #251, 1000.000000000000114 ) ;
#216 = LOCAL_TIME ( 15, 22, 19.00000000000000000, #136 ) ;
#217 = DIRECTION ( 'NONE',  ( 1.000000000000000000, 0.0000000000000000000, 0.0000000000000000000 ) ) ;
#218 = DIRECTION ( 'NONE',  ( -3.491481338843133355E-15, 1.224646799147353454E-16, -1.000000000000000000 ) ) ;
#219 = EDGE_CURVE ( 'NONE', #323, #106, #119, .T. ) ;
#220 = CARTESIAN_POINT ( 'NONE',  ( 4.898587196589385219E-16, -3.999999999999991562, -4.898587196589420717E-16 ) ) ;
#221 = ADVANCED_FACE ( 'NONE', ( #67 ), #264, .T. ) ;
#222 = CARTESIAN_POINT ( 'NONE',  ( 0.0000000000000000000, 0.0000000000000000000, 0.0000000000000000000 ) ) ;
#223 = CARTESIAN_POINT ( 'NONE',  ( 0.0000000000000000000, 0.0000000000000000000, 0.0000000000000000000 ) ) ;
#224 = AXIS2_PLACEMENT_3D ( 'NONE', #329, #65, #262 ) ;
#225 = APPROVAL_PERSON_ORGANIZATION ( #236, #303, #126 ) ;
#226 = EDGE_LOOP ( 'NONE', ( #114, #267, #87, #276 ) ) ;
#227 = DATE_AND_TIME ( #48, #326 ) ;
#228 = FACE_OUTER_BOUND ( 'NONE', #273, .T. ) ;
#229 = APPROVAL ( #26, 'UNSPECIFIED' ) ;
#230 = ORIENTED_EDGE ( 'NONE', *, *, #190, .T. ) ;
#231 = CARTESIAN_POINT ( 'NONE',  ( 0.0000000000000000000, 0.0000000000000000000, 0.0000000000000000000 ) ) ;
#232 = AXIS2_PLACEMENT_3D ( 'NONE', #231, #282, #134 ) ;
#233 = ORIENTED_EDGE ( 'NONE', *, *, #8, .F. ) ;
#234 = DIRECTION ( 'NONE',  ( -2.468850131082258244E-15, 0.7071067811865495711, -0.7071067811865454633 ) ) ;
#235 = CARTESIAN_POINT ( 'NONE',  ( 3.342754747130624136E-13, -4.000000000000015099, 116.2000000000000171 ) ) ;
#236 = PERSON_AND_ORGANIZATION ( #268, #172 ) ;
#237 = CARTESIAN_POINT ( 'NONE',  ( 1.710332578358780290E-30, 3.999999999999991562, 4.898587196589402968E-16 ) ) ;
#238 = CIRCLE ( 'NONE', #100, 3.999999999999987121 ) ;
#239 = ORIENTED_EDGE ( 'NONE', *, *, #156, .F. ) ;
#240 = ORIENTED_EDGE ( 'NONE', *, *, #174, .T. ) ;
#241 = EDGE_CURVE ( 'NONE', #45, #182, #159, .T. ) ;
#242 = CARTESIAN_POINT ( 'NONE',  ( 3.342754747130625146E-13, -4.000000000000006217, 75.00000000000000000 ) ) ;
#243 = VERTEX_POINT ( 'NONE', #138 ) ;
#244 = AXIS2_PLACEMENT_3D ( 'NONE', #207, #9, #98 ) ;
#245 = EDGE_CURVE ( 'NONE', #289, #176, #278, .T. ) ;
#246 = CARTESIAN_POINT ( 'NONE',  ( 2.618611004132350143E-13, -9.184850993605150311E-15, 75.00000000000000000 ) ) ;
#247 = ADVANCED_BREP_SHAPE_REPRESENTATION ( '40073', ( #306, #184, #133 ), #128 ) ;
#248 = ORIENTED_EDGE ( 'NONE', *, *, #92, .F. ) ;
#249 = APPLICATION_PROTOCOL_DEFINITION ( 'international standard', 'config_control_design', 1994, #322 ) ;
#250 = CARTESIAN_POINT ( 'NONE',  ( 4.088952036203737626E-13, -3.200000000000015721, 117.0000000000000000 ) ) ;
#251 = DIRECTION ( 'NONE',  ( 1.903218546456021928E-15, 0.8571673007021098911, 0.5150380749100583744 ) ) ;
#252 = CIRCLE ( 'NONE', #55, 3.200000000000001510 ) ;
#253 = CONICAL_SURFACE ( 'NONE', #113, 3.200000000000001510, 0.7853981633974510546 ) ;
#254 = ORIENTED_EDGE ( 'NONE', *, *, #320, .T. ) ;
#255 = PERSON_AND_ORGANIZATION ( #268, #172 ) ;
#256 = DIRECTION ( 'NONE',  ( -3.491481338843133355E-15, 1.224646799147353454E-16, -1.000000000000000000 ) ) ;
#257 = CARTESIAN_POINT ( 'NONE',  ( 2.618611004132350143E-13, 3.999999999999987121, 75.00000000000000000 ) ) ;
#258 = DIRECTION ( 'NONE',  ( -3.491481338843133355E-15, 1.224646799147353454E-16, -1.000000000000000000 ) ) ;
#259 = CARTESIAN_POINT ( 'NONE',  ( 4.085033166446466404E-13, -1.432836755002403758E-14, 117.0000000000000000 ) ) ;
#260 = AXIS2_PLACEMENT_3D ( 'NONE', #259, #147, #142 ) ;
#261 = DIRECTION ( 'NONE',  ( -3.491481338843133355E-15, 1.224646799147353454E-16, -1.000000000000000000 ) ) ;
#262 = DIRECTION ( 'NONE',  ( -3.851859888774483967E-31, -1.000000000000000000, -1.084202172485507885E-16 ) ) ;
#263 = PERSON_AND_ORGANIZATION_ROLE ( 'design_supplier' ) ;
#264 = CONICAL_SURFACE ( 'NONE', #68, 3.200000000000001510, 0.7853981633974510546 ) ;
#265 = ORIENTED_EDGE ( 'NONE', *, *, #241, .F. ) ;
#266 = ADVANCED_FACE ( 'NONE', ( #2 ), #93, .F. ) ;
#267 = ORIENTED_EDGE ( 'NONE', *, *, #156, .T. ) ;
#268 = PERSON ( 'UNSPECIFIED', 'UNSPECIFIED', 'UNSPECIFIED', ('UNSPECIFIED'), ('UNSPECIFIED'), ('UNSPECIFIED') ) ;
#269 =( LENGTH_UNIT ( ) NAMED_UNIT ( * ) SI_UNIT ( .MILLI., .METRE. ) );
#270 = LINE ( 'NONE', #220, #38 ) ;
#271 = CIRCLE ( 'NONE', #202, 4.000000000000000888 ) ;
#272 = DIRECTION ( 'NONE',  ( 4.275831445896959482E-31, 1.000000000000000000, 1.224646799147353207E-16 ) ) ;
#273 = EDGE_LOOP ( 'NONE', ( #239, #135, #194, #104 ) ) ;
#274 = PERSON_AND_ORGANIZATION ( #268, #172 ) ;
#275 = DIRECTION ( 'NONE',  ( -3.491481338843133355E-15, 1.224646799147353454E-16, -1.000000000000000000 ) ) ;
#276 = ORIENTED_EDGE ( 'NONE', *, *, #150, .F. ) ;
#277 = PERSON_AND_ORGANIZATION ( #268, #172 ) ;
#278 = LINE ( 'NONE', #51, #215 ) ;
#279 = ADVANCED_FACE ( 'NONE', ( #91 ), #253, .T. ) ;
#280 = DIRECTION ( 'NONE',  ( -4.275831445896959482E-31, -1.000000000000000000, -1.224646799147353454E-16 ) ) ;
#281 = PLANE ( 'NONE',  #139 ) ;
#282 = DIRECTION ( 'NONE',  ( -3.491481338843133355E-15, 1.224646799147353454E-16, -1.000000000000000000 ) ) ;
#283 = ORIENTED_EDGE ( 'NONE', *, *, #219, .F. ) ;
#284 = DIRECTION ( 'NONE',  ( -3.491481338843133355E-15, 1.224646799147353454E-16, -1.000000000000000000 ) ) ;
#285 = ADVANCED_FACE ( 'NONE', ( #228 ), #302, .T. ) ;
#286 = CARTESIAN_POINT ( 'NONE',  ( 1.356161962034370896E-13, -4.000000000000006217, 75.00000000000000000 ) ) ;
#287 = AXIS2_PLACEMENT_3D ( 'NONE', #203, #144, #319 ) ;
#288 = DIRECTION ( 'NONE',  ( -3.491481338843133355E-15, 1.224646799147353454E-16, -1.000000000000000000 ) ) ;
#289 = VERTEX_POINT ( 'NONE', #223 ) ;
#290 = ORIENTED_EDGE ( 'NONE', *, *, #110, .F. ) ;
#291 = CC_DESIGN_DATE_AND_TIME_ASSIGNMENT ( #227, #165, ( #44 ) ) ;
#292 = CALENDAR_DATE ( 2021, 2, 9 ) ;
#293 = AXIS2_PLACEMENT_3D ( 'NONE', #56, #261, #33 ) ;
#294 = EDGE_LOOP ( 'NONE', ( #233, #295 ) ) ;
#295 = ORIENTED_EDGE ( 'NONE', *, *, #11, .F. ) ;
#296 = VECTOR ( 'NONE', #181, 1000.000000000000000 ) ;
#297 = LOCAL_TIME ( 15, 22, 19.00000000000000000, #37 ) ;
#298 = CARTESIAN_POINT ( 'NONE',  ( 8.881433273980845983E-15, 3.999999999999987121, 2.403442476110259740 ) ) ;
#299 = APPLICATION_CONTEXT ( 'configuration controlled 3d designs of mechanical parts and assemblies' ) ;
#300 = PRODUCT ( '40073', '40073', '', ( #328 ) ) ;
#301 = LINE ( 'NONE', #237, #178 ) ;
#302 = CYLINDRICAL_SURFACE ( 'NONE', #152, 3.999999999999991562 ) ;
#303 = APPROVAL ( #102, 'UNSPECIFIED' ) ;
#304 = AXIS2_PLACEMENT_3D ( 'NONE', #246, #23, #115 ) ;
#305 = DIRECTION ( 'NONE',  ( -2.382254525458709186E-15, -0.7071067811865493491, -0.7071067811865456854 ) ) ;
#306 = MANIFOLD_SOLID_BREP ( 'Corps-Déplacer/Copier1[1]', #22 ) ;
#307 = DATE_AND_TIME ( #196, #216 ) ;
#308 = DIRECTION ( 'NONE',  ( -3.491481338843133355E-15, 1.224646799147353454E-16, -1.000000000000000000 ) ) ;
#309 = ADVANCED_FACE ( 'NONE', ( #201 ), #313, .T. ) ;
#310 = PERSON_AND_ORGANIZATION ( #268, #172 ) ;
#311 = CARTESIAN_POINT ( 'NONE',  ( 4.085033166446466404E-13, -1.432836755002403758E-14, 117.0000000000000000 ) ) ;
#312 = ORIENTED_EDGE ( 'NONE', *, *, #24, .F. ) ;
#313 = CYLINDRICAL_SURFACE ( 'NONE', #39, 3.999999999999991562 ) ;
#314 = PRODUCT_DEFINITION_FORMATION_WITH_SPECIFIED_SOURCE ( 'ANY', '', #300, .NOT_KNOWN. ) ;
#315 = DIRECTION ( 'NONE',  ( 0.0000000000000000000, 1.000000000000000000, 0.0000000000000000000 ) ) ;
#316 = FACE_OUTER_BOUND ( 'NONE', #186, .T. ) ;
#317 = ORIENTED_EDGE ( 'NONE', *, *, #245, .F. ) ;
#318 = EDGE_LOOP ( 'NONE', ( #20, #5, #330, #312 ) ) ;
#319 = DIRECTION ( 'NONE',  ( -4.275831445896959482E-31, -1.000000000000000000, -1.224646799147353454E-16 ) ) ;
#320 = EDGE_CURVE ( 'NONE', #182, #45, #31, .T. ) ;
#321 = ORIENTED_EDGE ( 'NONE', *, *, #320, .F. ) ;
#322 = APPLICATION_CONTEXT ( 'configuration controlled 3d designs of mechanical parts and assemblies' ) ;
#323 = VERTEX_POINT ( 'NONE', #88 ) ;
#324 = CIRCLE ( 'NONE', #260, 3.200000000000001510 ) ;
#325 = VECTOR ( 'NONE', #169, 1000.000000000000000 ) ;
#326 = LOCAL_TIME ( 15, 22, 19.00000000000000000, #137 ) ;
#327 = DIRECTION ( 'NONE',  ( 0.0000000000000000000, 1.000000000000000000, 0.0000000000000000000 ) ) ;
#328 = MECHANICAL_CONTEXT ( 'NONE', #299, 'mechanical' ) ;
#329 = CARTESIAN_POINT ( 'NONE',  ( 8.391574554321903813E-15, -2.943368135303218590E-16, 2.403442476110259296 ) ) ;
#330 = ORIENTED_EDGE ( 'NONE', *, *, #77, .F. ) ;
#331 = SECURITY_CLASSIFICATION ( '', '', #210 ) ;
#332 = ADVANCED_FACE ( 'NONE', ( #316 ), #175, .T. ) ;
#333 = DIRECTION ( 'NONE',  ( -3.491481338843133355E-15, 1.224646799147353454E-16, -1.000000000000000000 ) ) ;
#334 = ORIENTED_EDGE ( 'NONE', *, *, #205, .F. ) ;
#335 = DIRECTION ( 'NONE',  ( -3.491481338843133355E-15, 1.224646799147353454E-16, -1.000000000000000000 ) ) ;
#336 = AXIS2_PLACEMENT_3D ( 'NONE', #206, #284, #53 ) ;
#337 = CALENDAR_DATE ( 2021, 2, 9 ) ;
ENDSEC;
END-ISO-10303-21;
