ISO-10303-21;
HEADER;
FILE_DESCRIPTION (( 'STEP AP203' ),
    '1' );
FILE_NAME ('40071.step',
    '2021-09-02T13:22:18',
    ( '' ),
    ( '' ),
    'SwSTEP 2.0',
    'SolidWorks 2019',
    '' );
FILE_SCHEMA (( 'CONFIG_CONTROL_DESIGN' ));
ENDSEC;

DATA;
#1 = DIRECTION ( 'NONE',  ( 4.275831445896958607E-31, 1.000000000000000000, 1.224646799147353207E-16 ) ) ;
#2 = CARTESIAN_POINT ( 'NONE',  ( 0.0000000000000000000, 0.0000000000000000000, 0.0000000000000000000 ) ) ;
#3 = LINE ( 'NONE', #261, #234 ) ;
#4 = LINE ( 'NONE', #208, #187 ) ;
#5 = DIRECTION ( 'NONE',  ( -3.491481338843133355E-15, 1.224646799147353207E-16, -1.000000000000000000 ) ) ;
#6 = VECTOR ( 'NONE', #25, 1000.000000000000000 ) ;
#7 = EDGE_CURVE ( 'NONE', #165, #87, #11, .T. ) ;
#8 = DIRECTION ( 'NONE',  ( -3.491481338843133355E-15, 1.224646799147353207E-16, -1.000000000000000000 ) ) ;
#9 = DIRECTION ( 'NONE',  ( -3.491481338843133355E-15, 1.224646799147353207E-16, -1.000000000000000000 ) ) ;
#10 = PERSON_AND_ORGANIZATION_ROLE ( 'design_owner' ) ;
#11 = LINE ( 'NONE', #142, #242 ) ;
#12 = CIRCLE ( 'NONE', #329, 3.349999999999988542 ) ;
#13 = APPROVAL_STATUS ( 'not_yet_approved' ) ;
#14 = ORIENTED_EDGE ( 'NONE', *, *, #305, .F. ) ;
#15 = EDGE_CURVE ( 'NONE', #297, #293, #312, .T. ) ;
#16 = EDGE_LOOP ( 'NONE', ( #295, #63, #138, #38 ) ) ;
#17 = VERTEX_POINT ( 'NONE', #91 ) ;
#18 = AXIS2_PLACEMENT_3D ( 'NONE', #202, #21, #130 ) ;
#19 = APPROVAL_ROLE ( '' ) ;
#20 = EDGE_LOOP ( 'NONE', ( #168, #240, #273 ) ) ;
#21 = DIRECTION ( 'NONE',  ( 3.491481338843133355E-15, -1.224646799147353207E-16, 1.000000000000000000 ) ) ;
#22 = CARTESIAN_POINT ( 'NONE',  ( 0.0000000000000000000, 0.0000000000000000000, 0.0000000000000000000 ) ) ;
#23 = CIRCLE ( 'NONE', #180, 2.650000000000000355 ) ;
#24 = DIRECTION ( 'NONE',  ( -3.491481338843133355E-15, 1.224646799147353207E-16, -1.000000000000000000 ) ) ;
#25 = DIRECTION ( 'NONE',  ( -3.491481338843133355E-15, 1.224646799147353207E-16, -1.000000000000000000 ) ) ;
#26 = DIRECTION ( 'NONE',  ( 3.491481338843133355E-15, -1.224646799147353207E-16, 1.000000000000000000 ) ) ;
#27 =( LENGTH_UNIT ( ) NAMED_UNIT ( * ) SI_UNIT ( .MILLI., .METRE. ) );
#28 = AXIS2_PLACEMENT_3D ( 'NONE', #153, #24, #1 ) ;
#29 = CARTESIAN_POINT ( 'NONE',  ( 2.854897079942561387E-13, -3.350000000000003642, 63.00000000000000000 ) ) ;
#30 = PLANE ( 'NONE',  #279 ) ;
#31 = CC_DESIGN_SECURITY_CLASSIFICATION ( #310, ( #133 ) ) ;
#32 = APPROVAL_PERSON_ORGANIZATION ( #167, #256, #19 ) ;
#33 = DIRECTION ( 'NONE',  ( -4.275831445896958607E-31, -1.000000000000000000, -1.224646799147353207E-16 ) ) ;
#34 = VECTOR ( 'NONE', #53, 1000.000000000000000 ) ;
#35 = DIRECTION ( 'NONE',  ( 3.491481338843133355E-15, -1.224646799147353207E-16, 1.000000000000000000 ) ) ;
#36 = ORIENTED_EDGE ( 'NONE', *, *, #207, .T. ) ;
#37 = DIRECTION ( 'NONE',  ( 0.0000000000000000000, 0.0000000000000000000, 1.000000000000000000 ) ) ;
#38 = ORIENTED_EDGE ( 'NONE', *, *, #250, .F. ) ;
#39 = VERTEX_POINT ( 'NONE', #199 ) ;
#40 = DATE_TIME_ROLE ( 'creation_date' ) ;
#41 = CC_DESIGN_APPROVAL ( #256, ( #44 ) ) ;
#42 = EDGE_CURVE ( 'NONE', #331, #265, #12, .T. ) ;
#43 = ORIENTED_EDGE ( 'NONE', *, *, #232, .T. ) ;
#44 = PRODUCT_DEFINITION ( 'UNKNOWN', '', #133, #49 ) ;
#45 = APPROVAL_DATE_TIME ( #330, #256 ) ;
#46 = VERTEX_POINT ( 'NONE', #300 ) ;
#47 = LINE ( 'NONE', #96, #79 ) ;
#48 = DIRECTION ( 'NONE',  ( 3.491481338843133355E-15, -1.224646799147353207E-16, 1.000000000000000000 ) ) ;
#49 = DESIGN_CONTEXT ( 'detailed design', #54, 'design' ) ;
#50 = DIRECTION ( 'NONE',  ( 4.275831445896958607E-31, 1.000000000000000000, 1.224646799147353207E-16 ) ) ;
#51 = ADVANCED_FACE ( 'NONE', ( #72 ), #278, .T. ) ;
#52 = CYLINDRICAL_SURFACE ( 'NONE', #115, 3.349999999999991651 ) ;
#53 = DIRECTION ( 'NONE',  ( 1.798245827342160317E-15, -0.8571673007021098911, 0.5150380749100582634 ) ) ;
#54 = APPLICATION_CONTEXT ( 'configuration controlled 3d designs of mechanical parts and assemblies' ) ;
#55 = DIRECTION ( 'NONE',  ( -3.491481338843133355E-15, 1.224646799147353207E-16, -1.000000000000000000 ) ) ;
#56 = DIRECTION ( 'NONE',  ( -3.491481338843133355E-15, 1.224646799147353207E-16, -1.000000000000000000 ) ) ;
#57 = AXIS2_PLACEMENT_3D ( 'NONE', #77, #8, #59 ) ;
#58 = DIRECTION ( 'NONE',  ( -2.468850131082276388E-15, 0.7071067811865443531, -0.7071067811865506814 ) ) ;
#59 = DIRECTION ( 'NONE',  ( 0.0000000000000000000, 1.000000000000000000, 0.0000000000000000000 ) ) ;
#60 = CALENDAR_DATE ( 2021, 2, 9 ) ;
#61 = ORIENTED_EDGE ( 'NONE', *, *, #101, .T. ) ;
#62 = CC_DESIGN_PERSON_AND_ORGANIZATION_ASSIGNMENT ( #288, #190, ( #310 ) ) ;
#63 = ORIENTED_EDGE ( 'NONE', *, *, #147, .T. ) ;
#64 = CIRCLE ( 'NONE', #125, 3.349999999999995648 ) ;
#65 = APPROVAL_STATUS ( 'not_yet_approved' ) ;
#66 = ORIENTED_EDGE ( 'NONE', *, *, #7, .T. ) ;
#67 = APPROVAL_DATE_TIME ( #322, #148 ) ;
#68 = ORIENTED_EDGE ( 'NONE', *, *, #332, .F. ) ;
#69 = PERSON ( 'UNSPECIFIED', 'UNSPECIFIED', 'UNSPECIFIED', ('UNSPECIFIED'), ('UNSPECIFIED'), ('UNSPECIFIED') ) ;
#70 = CARTESIAN_POINT ( 'NONE',  ( 3.501955782859662818E-13, 3.349999999999988098, 100.2999999999999972 ) ) ;
#71 = ORGANIZATION ( 'UNSPECIFIED', 'UNSPECIFIED', '' ) ;
#72 = FACE_OUTER_BOUND ( 'NONE', #144, .T. ) ;
#73 = DIRECTION ( 'NONE',  ( -3.491481338843133355E-15, 1.224646799147353207E-16, -1.000000000000000000 ) ) ;
#74 = CARTESIAN_POINT ( 'NONE',  ( 7.027943689244592807E-15, -3.349999999999988987, 2.012883073742341544 ) ) ;
#75 = VECTOR ( 'NONE', #253, 999.9999999999998863 ) ;
#76 = DIRECTION ( 'NONE',  ( -4.275831445896958607E-31, -1.000000000000000000, -1.224646799147353207E-16 ) ) ;
#77 = CARTESIAN_POINT ( 'NONE',  ( 2.199633243471174140E-13, -7.715274834628325378E-15, 63.00000000000000000 ) ) ;
#78 = CARTESIAN_POINT ( 'NONE',  ( 3.526396152231565067E-13, 1.987181712026942993E-32, 101.0000000000000000 ) ) ;
#79 = VECTOR ( 'NONE', #176, 1000.000000000000000 ) ;
#80 = CARTESIAN_POINT ( 'NONE',  ( 7.027943689244594384E-15, -2.465070813316445094E-16, 2.012883073742341988 ) ) ;
#81 = EDGE_CURVE ( 'NONE', #87, #293, #170, .T. ) ;
#82 = PLANE ( 'NONE',  #313 ) ;
#83 = EDGE_CURVE ( 'NONE', #46, #265, #149, .T. ) ;
#84 = COORDINATED_UNIVERSAL_TIME_OFFSET ( 1, 0, .AHEAD. ) ;
#85 = PRODUCT_RELATED_PRODUCT_CATEGORY ( 'detail', '', ( #263 ) ) ;
#86 = AXIS2_PLACEMENT_3D ( 'NONE', #233, #277, #152 ) ;
#87 = VERTEX_POINT ( 'NONE', #306 ) ;
#88 = SECURITY_CLASSIFICATION_LEVEL ( 'unclassified' ) ;
#89 = LOCAL_TIME ( 15, 22, 18.00000000000000000, #162 ) ;
#90 = ORIENTED_EDGE ( 'NONE', *, *, #7, .F. ) ;
#91 = CARTESIAN_POINT ( 'NONE',  ( 2.199633243471174140E-13, 3.349999999999988098, 63.00000000000000000 ) ) ;
#92 = CALENDAR_DATE ( 2021, 2, 9 ) ;
#93 = ORIENTED_EDGE ( 'NONE', *, *, #204, .F. ) ;
#94 = ADVANCED_FACE ( 'NONE', ( #106 ), #52, .T. ) ;
#95 = ORIENTED_EDGE ( 'NONE', *, *, #81, .T. ) ;
#96 = CARTESIAN_POINT ( 'NONE',  ( 4.102566777143609122E-16, -3.349999999999991651, -4.102566777143637225E-16 ) ) ;
#97 = UNCERTAINTY_MEASURE_WITH_UNIT (LENGTH_MEASURE( 1.000000000000000082E-05 ), #27, 'distance_accuracy_value', 'NONE');
#98 = CIRCLE ( 'NONE', #283, 2.650000000000000355 ) ;
#99 = FACE_OUTER_BOUND ( 'NONE', #267, .T. ) ;
#100 = DIRECTION ( 'NONE',  ( -3.491481338843133355E-15, 1.224646799147353207E-16, -1.000000000000000000 ) ) ;
#101 = EDGE_CURVE ( 'NONE', #46, #331, #255, .T. ) ;
#102 = ADVANCED_FACE ( 'NONE', ( #154 ), #192, .T. ) ;
#103 = CARTESIAN_POINT ( 'NONE',  ( 3.526396152231565067E-13, -1.236893267138826732E-14, 101.0000000000000000 ) ) ;
#104 = CLOSED_SHELL ( 'NONE', ( #195, #51, #262, #182, #102, #272 ) ) ;
#105 = AXIS2_PLACEMENT_3D ( 'NONE', #118, #221, #327 ) ;
#106 = FACE_OUTER_BOUND ( 'NONE', #16, .T. ) ;
#107 = DIRECTION ( 'NONE',  ( -3.491481338843133355E-15, 1.224646799147353207E-16, -1.000000000000000000 ) ) ;
#108 = FACE_OUTER_BOUND ( 'NONE', #163, .T. ) ;
#109 = FACE_OUTER_BOUND ( 'NONE', #117, .T. ) ;
#110 = AXIS2_PLACEMENT_3D ( 'NONE', #181, #134, #177 ) ;
#111 = DIRECTION ( 'NONE',  ( 4.275831445896958607E-31, 1.000000000000000000, 1.224646799147353207E-16 ) ) ;
#112 = APPROVAL_PERSON_ORGANIZATION ( #294, #148, #186 ) ;
#113 = DATE_AND_TIME ( #92, #129 ) ;
#114 = ORIENTED_EDGE ( 'NONE', *, *, #147, .F. ) ;
#115 = AXIS2_PLACEMENT_3D ( 'NONE', #2, #73, #231 ) ;
#116 = APPROVAL_ROLE ( '' ) ;
#117 = EDGE_LOOP ( 'NONE', ( #114, #333, #209, #270 ) ) ;
#118 = CARTESIAN_POINT ( 'NONE',  ( 2.199633243471174140E-13, -7.715274834628325378E-15, 63.00000000000000000 ) ) ;
#119 = PERSON_AND_ORGANIZATION ( #69, #71 ) ;
#120 = EDGE_LOOP ( 'NONE', ( #268, #61, #224 ) ) ;
#121 = ORIENTED_EDGE ( 'NONE', *, *, #315, .T. ) ;
#122 = DIRECTION ( 'NONE',  ( 0.0000000000000000000, 1.000000000000000000, 0.0000000000000000000 ) ) ;
#123 = DIRECTION ( 'NONE',  ( 4.599235688088937453E-31, 1.000000000000000000, 1.294569758191651593E-16 ) ) ;
#124 = APPROVAL ( #13, 'UNSPECIFIED' ) ;
#125 = AXIS2_PLACEMENT_3D ( 'NONE', #275, #128, #122 ) ;
#126 = ADVANCED_FACE ( 'NONE', ( #99 ), #337, .T. ) ;
#127 = FACE_OUTER_BOUND ( 'NONE', #193, .T. ) ;
#128 = DIRECTION ( 'NONE',  ( -3.491481338843133355E-15, 1.224646799147353207E-16, -1.000000000000000000 ) ) ;
#129 = LOCAL_TIME ( 15, 22, 18.00000000000000000, #217 ) ;
#130 = DIRECTION ( 'NONE',  ( -4.599235688088937453E-31, -1.000000000000000000, -1.294569758191651593E-16 ) ) ;
#131 = DIRECTION ( 'NONE',  ( 0.0000000000000000000, 1.000000000000000000, 0.0000000000000000000 ) ) ;
#132 = DIRECTION ( 'NONE',  ( 0.0000000000000000000, 1.000000000000000000, 0.0000000000000000000 ) ) ;
#133 = PRODUCT_DEFINITION_FORMATION_WITH_SPECIFIED_SOURCE ( 'ANY', '', #263, .NOT_KNOWN. ) ;
#134 = DIRECTION ( 'NONE',  ( -3.491481338843133355E-15, 1.224646799147353207E-16, -1.000000000000000000 ) ) ;
#135 = CONICAL_SURFACE ( 'NONE', #86, 2.650000000000000355, 0.7853981633974437271 ) ;
#136 = EDGE_CURVE ( 'NONE', #165, #39, #23, .T. ) ;
#137 = CARTESIAN_POINT ( 'NONE',  ( 2.199633243471174140E-13, 2.512097635958596987E-32, 63.00000000000000000 ) ) ;
#138 = ORIENTED_EDGE ( 'NONE', *, *, #328, .F. ) ;
#139 = COORDINATED_UNIVERSAL_TIME_OFFSET ( 1, 0, .AHEAD. ) ;
#140 = EDGE_LOOP ( 'NONE', ( #243, #169 ) ) ;
#141 = AXIS2_PLACEMENT_3D ( 'NONE', #311, #107, #131 ) ;
#142 = CARTESIAN_POINT ( 'NONE',  ( 3.529641466249305006E-13, -2.650000000000013234, 101.0000000000000000 ) ) ;
#143 = CALENDAR_DATE ( 2021, 2, 9 ) ;
#144 = EDGE_LOOP ( 'NONE', ( #161, #95, #225, #68 ) ) ;
#145 = PERSON_AND_ORGANIZATION_ROLE ( 'creator' ) ;
#146 = ORIENTED_EDGE ( 'NONE', *, *, #315, .F. ) ;
#147 = EDGE_CURVE ( 'NONE', #191, #331, #47, .T. ) ;
#148 = APPROVAL ( #65, 'UNSPECIFIED' ) ;
#149 = LINE ( 'NONE', #201, #75 ) ;
#150 = CC_DESIGN_PERSON_AND_ORGANIZATION_ASSIGNMENT ( #119, #296, ( #133 ) ) ;
#151 = DIRECTION ( 'NONE',  ( -4.599235688088937453E-31, -1.000000000000000000, -1.294569758191651593E-16 ) ) ;
#152 = DIRECTION ( 'NONE',  ( 0.0000000000000000000, 1.000000000000000000, 0.0000000000000000000 ) ) ;
#153 = CARTESIAN_POINT ( 'NONE',  ( 0.0000000000000000000, 0.0000000000000000000, 0.0000000000000000000 ) ) ;
#154 = FACE_OUTER_BOUND ( 'NONE', #189, .T. ) ;
#155 = AXIS2_PLACEMENT_3D ( 'NONE', #22, #229, #50 ) ;
#156 = CARTESIAN_POINT ( 'NONE',  ( 3.501955782859662818E-13, -1.228320739544795303E-14, 100.2999999999999972 ) ) ;
#157 = APPLICATION_PROTOCOL_DEFINITION ( 'international standard', 'config_control_design', 1994, #318 ) ;
#158 = FACE_OUTER_BOUND ( 'NONE', #140, .T. ) ;
#159 = CONICAL_SURFACE ( 'NONE', #228, 3.349999999999988542, 1.029744258676649649 ) ;
#160 = PERSON_AND_ORGANIZATION ( #69, #71 ) ;
#161 = ORIENTED_EDGE ( 'NONE', *, *, #212, .T. ) ;
#162 = COORDINATED_UNIVERSAL_TIME_OFFSET ( 1, 0, .AHEAD. ) ;
#163 = EDGE_LOOP ( 'NONE', ( #198, #323 ) ) ;
#164 = APPROVAL_STATUS ( 'not_yet_approved' ) ;
#165 = VERTEX_POINT ( 'NONE', #200 ) ;
#166 = ADVANCED_FACE ( 'NONE', ( #280 ), #159, .T. ) ;
#167 = PERSON_AND_ORGANIZATION ( #69, #71 ) ;
#168 = ORIENTED_EDGE ( 'NONE', *, *, #101, .F. ) ;
#169 = ORIENTED_EDGE ( 'NONE', *, *, #136, .F. ) ;
#170 = LINE ( 'NONE', #172, #6 ) ;
#171 = CIRCLE ( 'NONE', #175, 3.349999999999988542 ) ;
#172 = CARTESIAN_POINT ( 'NONE',  ( 4.102566777143616518E-16, -3.349999999999997868, -4.102566777143645114E-16 ) ) ;
#173 = CARTESIAN_POINT ( 'NONE',  ( 7.027943689244594384E-15, -2.465070813316445094E-16, 2.012883073742341988 ) ) ;
#174 = CARTESIAN_POINT ( 'NONE',  ( 3.526396152231565067E-13, -1.236893267138826732E-14, 101.0000000000000000 ) ) ;
#175 = AXIS2_PLACEMENT_3D ( 'NONE', #80, #5, #284 ) ;
#176 = DIRECTION ( 'NONE',  ( -3.491481338843133355E-15, 1.224646799147353207E-16, -1.000000000000000000 ) ) ;
#177 = DIRECTION ( 'NONE',  ( 4.275831445896959482E-31, 1.000000000000000000, 1.224646799147353207E-16 ) ) ;
#178 = CARTESIAN_POINT ( 'NONE',  ( 0.0000000000000000000, 0.0000000000000000000, 0.0000000000000000000 ) ) ;
#179 = CC_DESIGN_PERSON_AND_ORGANIZATION_ASSIGNMENT ( #324, #213, ( #133 ) ) ;
#180 = AXIS2_PLACEMENT_3D ( 'NONE', #103, #307, #205 ) ;
#181 = CARTESIAN_POINT ( 'NONE',  ( 0.0000000000000000000, 0.0000000000000000000, 0.0000000000000000000 ) ) ;
#182 = ADVANCED_FACE ( 'NONE', ( #127 ), #252, .T. ) ;
#183 = MANIFOLD_SOLID_BREP ( 'Corps-Déplacer/Copier1[2]', #215 ) ;
#184 =( NAMED_UNIT ( * ) PLANE_ANGLE_UNIT ( ) SI_UNIT ( $, .RADIAN. ) );
#185 = CC_DESIGN_PERSON_AND_ORGANIZATION_ASSIGNMENT ( #271, #145, ( #44 ) ) ;
#186 = APPROVAL_ROLE ( '' ) ;
#187 = VECTOR ( 'NONE', #281, 1000.000000000000000 ) ;
#188 = MECHANICAL_CONTEXT ( 'NONE', #318, 'mechanical' ) ;
#189 = EDGE_LOOP ( 'NONE', ( #90, #290, #121, #298 ) ) ;
#190 = PERSON_AND_ORGANIZATION_ROLE ( 'classification_officer' ) ;
#191 = VERTEX_POINT ( 'NONE', #226 ) ;
#192 = CONICAL_SURFACE ( 'NONE', #335, 2.650000000000000355, 0.7853981633974437271 ) ;
#193 = EDGE_LOOP ( 'NONE', ( #216, #36, #218, #93 ) ) ;
#194 = ADVANCED_FACE ( 'NONE', ( #227 ), #260, .T. ) ;
#195 = ADVANCED_FACE ( 'NONE', ( #336 ), #135, .T. ) ;
#196 = SHAPE_DEFINITION_REPRESENTATION ( #211, #309 ) ;
#197 = VERTEX_POINT ( 'NONE', #70 ) ;
#198 = ORIENTED_EDGE ( 'NONE', *, *, #15, .T. ) ;
#199 = CARTESIAN_POINT ( 'NONE',  ( 3.526396152231565067E-13, 2.649999999999987921, 101.0000000000000000 ) ) ;
#200 = CARTESIAN_POINT ( 'NONE',  ( 3.517849907943055997E-13, -2.650000000000013234, 101.0000000000000000 ) ) ;
#201 = CARTESIAN_POINT ( 'NONE',  ( 7.438200366958958551E-15, 3.349999999999988098, 2.012883073742342432 ) ) ;
#202 = CARTESIAN_POINT ( 'NONE',  ( 7.027943689244594384E-15, -2.465070813316445094E-16, 2.012883073742341988 ) ) ;
#203 = VECTOR ( 'NONE', #55, 1000.000000000000000 ) ;
#204 = EDGE_CURVE ( 'NONE', #293, #297, #64, .T. ) ;
#205 = DIRECTION ( 'NONE',  ( 0.0000000000000000000, 1.000000000000000000, 0.0000000000000000000 ) ) ;
#206 = CARTESIAN_POINT ( 'NONE',  ( 7.438200366958958551E-15, 3.349999999999988098, 2.012883073742342432 ) ) ;
#207 = EDGE_CURVE ( 'NONE', #87, #197, #287, .T. ) ;
#208 = CARTESIAN_POINT ( 'NONE',  ( 1.432403534375480231E-30, 3.349999999999997868, 4.102566777143630323E-16 ) ) ;
#209 = ORIENTED_EDGE ( 'NONE', *, *, #250, .T. ) ;
#210 = DIRECTION ( 'NONE',  ( 0.0000000000000000000, 1.000000000000000000, 0.0000000000000000000 ) ) ;
#211 = PRODUCT_DEFINITION_SHAPE ( 'NONE', 'NONE',  #44 ) ;
#212 = EDGE_CURVE ( 'NONE', #197, #87, #299, .T. ) ;
#213 = PERSON_AND_ORGANIZATION_ROLE ( 'design_supplier' ) ;
#214 = APPROVAL_DATE_TIME ( #113, #124 ) ;
#215 = CLOSED_SHELL ( 'NONE', ( #94, #166, #194, #316, #126 ) ) ;
#216 = ORIENTED_EDGE ( 'NONE', *, *, #81, .F. ) ;
#217 = COORDINATED_UNIVERSAL_TIME_OFFSET ( 1, 0, .AHEAD. ) ;
#218 = ORIENTED_EDGE ( 'NONE', *, *, #332, .T. ) ;
#219 = CC_DESIGN_DATE_AND_TIME_ASSIGNMENT ( #245, #319, ( #310 ) ) ;
#220 = PERSON_AND_ORGANIZATION ( #69, #71 ) ;
#221 = DIRECTION ( 'NONE',  ( -3.491481338843133355E-15, 1.224646799147353207E-16, -1.000000000000000000 ) ) ;
#222 = CC_DESIGN_PERSON_AND_ORGANIZATION_ASSIGNMENT ( #160, #10, ( #263 ) ) ;
#223 = AXIS2_PLACEMENT_3D ( 'NONE', #251, #48, #76 ) ;
#224 = ORIENTED_EDGE ( 'NONE', *, *, #42, .T. ) ;
#225 = ORIENTED_EDGE ( 'NONE', *, *, #15, .F. ) ;
#226 = CARTESIAN_POINT ( 'NONE',  ( 1.139058906958951360E-13, -3.350000000000003642, 63.00000000000000000 ) ) ;
#227 = FACE_OUTER_BOUND ( 'NONE', #120, .T. ) ;
#228 = AXIS2_PLACEMENT_3D ( 'NONE', #173, #26, #151 ) ;
#229 = DIRECTION ( 'NONE',  ( -3.491481338843133355E-15, 1.224646799147353207E-16, -1.000000000000000000 ) ) ;
#230 = CC_DESIGN_DATE_AND_TIME_ASSIGNMENT ( #269, #40, ( #44 ) ) ;
#231 = DIRECTION ( 'NONE',  ( 4.275831445896959482E-31, 1.000000000000000000, 1.224646799147353207E-16 ) ) ;
#232 = EDGE_CURVE ( 'NONE', #39, #165, #98, .T. ) ;
#233 = CARTESIAN_POINT ( 'NONE',  ( 3.526396152231565067E-13, -1.236893267138826732E-14, 101.0000000000000000 ) ) ;
#234 = VECTOR ( 'NONE', #58, 1000.000000000000000 ) ;
#235 = CARTESIAN_POINT ( 'NONE',  ( 3.526396152231565067E-13, -1.236893267138826732E-14, 101.0000000000000000 ) ) ;
#236 = CARTESIAN_POINT ( 'NONE',  ( 7.027943689244592807E-15, -3.349999999999988987, 2.012883073742341544 ) ) ;
#237 = CIRCLE ( 'NONE', #57, 3.349999999999995648 ) ;
#238 = CARTESIAN_POINT ( 'NONE',  ( 1.432403534375477779E-30, 3.349999999999991651, 4.102566777143623420E-16 ) ) ;
#239 = DIRECTION ( 'NONE',  ( -3.491481338843133355E-15, 1.224646799147353207E-16, -1.000000000000000000 ) ) ;
#240 = ORIENTED_EDGE ( 'NONE', *, *, #83, .T. ) ;
#241 = CALENDAR_DATE ( 2021, 2, 9 ) ;
#242 = VECTOR ( 'NONE', #244, 1000.000000000000000 ) ;
#243 = ORIENTED_EDGE ( 'NONE', *, *, #232, .F. ) ;
#244 = DIRECTION ( 'NONE',  ( -2.382254525458728119E-15, -0.7071067811865441310, -0.7071067811865507924 ) ) ;
#245 = DATE_AND_TIME ( #60, #291 ) ;
#246 = ORIENTED_EDGE ( 'NONE', *, *, #321, .F. ) ;
#247 = APPLICATION_PROTOCOL_DEFINITION ( 'international standard', 'config_control_design', 1994, #54 ) ;
#248 =( GEOMETRIC_REPRESENTATION_CONTEXT ( 3 ) GLOBAL_UNCERTAINTY_ASSIGNED_CONTEXT ( ( #97 ) ) GLOBAL_UNIT_ASSIGNED_CONTEXT ( ( #27, #184, #314 ) ) REPRESENTATION_CONTEXT ( 'NONE', 'WORKASPACE' ) );
#249 = ORIENTED_EDGE ( 'NONE', *, *, #212, .F. ) ;
#250 = EDGE_CURVE ( 'NONE', #17, #265, #259, .T. ) ;
#251 = CARTESIAN_POINT ( 'NONE',  ( 2.199633243471174140E-13, 2.512097635958596987E-32, 63.00000000000000000 ) ) ;
#252 = CYLINDRICAL_SURFACE ( 'NONE', #155, 3.349999999999997868 ) ;
#253 = DIRECTION ( 'NONE',  ( 1.903218546456022717E-15, 0.8571673007021097801, 0.5150380749100585964 ) ) ;
#254 = AXIS2_PLACEMENT_3D ( 'NONE', #156, #9, #282 ) ;
#255 = LINE ( 'NONE', #74, #34 ) ;
#256 = APPROVAL ( #164, 'UNSPECIFIED' ) ;
#257 = LOCAL_TIME ( 15, 22, 18.00000000000000000, #139 ) ;
#258 = DIRECTION ( 'NONE',  ( 0.0000000000000000000, 1.000000000000000000, 0.0000000000000000000 ) ) ;
#259 = LINE ( 'NONE', #238, #203 ) ;
#260 = CONICAL_SURFACE ( 'NONE', #18, 3.349999999999988542, 1.029744258676649649 ) ;
#261 = CARTESIAN_POINT ( 'NONE',  ( 3.526396152231565067E-13, 2.649999999999987921, 101.0000000000000000 ) ) ;
#262 = ADVANCED_FACE ( 'NONE', ( #108 ), #30, .F. ) ;
#263 = PRODUCT ( '40071', '40071', '', ( #188 ) ) ;
#264 = AXIS2_PLACEMENT_3D ( 'NONE', #334, #239, #210 ) ;
#265 = VERTEX_POINT ( 'NONE', #206 ) ;
#266 = DIRECTION ( 'NONE',  ( 1.000000000000000000, 0.0000000000000000000, 0.0000000000000000000 ) ) ;
#267 = EDGE_LOOP ( 'NONE', ( #246, #14 ) ) ;
#268 = ORIENTED_EDGE ( 'NONE', *, *, #83, .F. ) ;
#269 = DATE_AND_TIME ( #289, #89 ) ;
#270 = ORIENTED_EDGE ( 'NONE', *, *, #42, .F. ) ;
#271 = PERSON_AND_ORGANIZATION ( #69, #71 ) ;
#272 = ADVANCED_FACE ( 'NONE', ( #158 ), #82, .F. ) ;
#273 = ORIENTED_EDGE ( 'NONE', *, *, #328, .T. ) ;
#274 = CIRCLE ( 'NONE', #141, 3.349999999999995648 ) ;
#275 = CARTESIAN_POINT ( 'NONE',  ( 2.199633243471174140E-13, -7.715274834628325378E-15, 63.00000000000000000 ) ) ;
#276 = DIRECTION ( 'NONE',  ( -3.491481338843133355E-15, 1.224646799147353207E-16, -1.000000000000000000 ) ) ;
#277 = DIRECTION ( 'NONE',  ( -3.491481338843133355E-15, 1.224646799147353207E-16, -1.000000000000000000 ) ) ;
#278 = CYLINDRICAL_SURFACE ( 'NONE', #28, 3.349999999999997868 ) ;
#279 = AXIS2_PLACEMENT_3D ( 'NONE', #137, #35, #33 ) ;
#280 = FACE_OUTER_BOUND ( 'NONE', #20, .T. ) ;
#281 = DIRECTION ( 'NONE',  ( -3.491481338843133355E-15, 1.224646799147353207E-16, -1.000000000000000000 ) ) ;
#282 = DIRECTION ( 'NONE',  ( 0.0000000000000000000, 1.000000000000000000, 0.0000000000000000000 ) ) ;
#283 = AXIS2_PLACEMENT_3D ( 'NONE', #235, #317, #132 ) ;
#284 = DIRECTION ( 'NONE',  ( 4.599235688088937453E-31, 1.000000000000000000, 1.294569758191651593E-16 ) ) ;
#285 = CC_DESIGN_APPROVAL ( #148, ( #310 ) ) ;
#286 = CARTESIAN_POINT ( 'NONE',  ( 2.199633243471174140E-13, 3.349999999999988098, 63.00000000000000000 ) ) ;
#287 = CIRCLE ( 'NONE', #264, 3.350000000000000089 ) ;
#288 = PERSON_AND_ORGANIZATION ( #69, #71 ) ;
#289 = CALENDAR_DATE ( 2021, 2, 9 ) ;
#290 = ORIENTED_EDGE ( 'NONE', *, *, #136, .T. ) ;
#291 = LOCAL_TIME ( 15, 22, 18.00000000000000000, #292 ) ;
#292 = COORDINATED_UNIVERSAL_TIME_OFFSET ( 1, 0, .AHEAD. ) ;
#293 = VERTEX_POINT ( 'NONE', #29 ) ;
#294 = PERSON_AND_ORGANIZATION ( #69, #71 ) ;
#295 = ORIENTED_EDGE ( 'NONE', *, *, #321, .T. ) ;
#296 = PERSON_AND_ORGANIZATION_ROLE ( 'creator' ) ;
#297 = VERTEX_POINT ( 'NONE', #286 ) ;
#298 = ORIENTED_EDGE ( 'NONE', *, *, #207, .F. ) ;
#299 = CIRCLE ( 'NONE', #254, 3.350000000000000089 ) ;
#300 = CARTESIAN_POINT ( 'NONE',  ( 0.0000000000000000000, 0.0000000000000000000, 0.0000000000000000000 ) ) ;
#301 = CARTESIAN_POINT ( 'NONE',  ( 7.027943689244594384E-15, -2.465070813316445094E-16, 2.012883073742341988 ) ) ;
#302 = CC_DESIGN_APPROVAL ( #124, ( #133 ) ) ;
#303 = APPROVAL_PERSON_ORGANIZATION ( #220, #124, #116 ) ;
#304 = MANIFOLD_SOLID_BREP ( 'Corps-Déplacer/Copier1[1]', #104 ) ;
#305 = EDGE_CURVE ( 'NONE', #191, #17, #274, .T. ) ;
#306 = CARTESIAN_POINT ( 'NONE',  ( 2.854897079942560882E-13, -3.350000000000012079, 100.2999999999999972 ) ) ;
#307 = DIRECTION ( 'NONE',  ( -3.491481338843133355E-15, 1.224646799147353207E-16, -1.000000000000000000 ) ) ;
#308 = CYLINDRICAL_SURFACE ( 'NONE', #110, 3.349999999999991651 ) ;
#309 = ADVANCED_BREP_SHAPE_REPRESENTATION ( '40071', ( #304, #183, #320 ), #248 ) ;
#310 = SECURITY_CLASSIFICATION ( '', '', #88 ) ;
#311 = CARTESIAN_POINT ( 'NONE',  ( 2.199633243471174140E-13, -7.715274834628325378E-15, 63.00000000000000000 ) ) ;
#312 = CIRCLE ( 'NONE', #105, 3.349999999999995648 ) ;
#313 = AXIS2_PLACEMENT_3D ( 'NONE', #78, #56, #111 ) ;
#314 =( NAMED_UNIT ( * ) SI_UNIT ( $, .STERADIAN. ) SOLID_ANGLE_UNIT ( ) );
#315 = EDGE_CURVE ( 'NONE', #39, #197, #3, .T. ) ;
#316 = ADVANCED_FACE ( 'NONE', ( #109 ), #308, .T. ) ;
#317 = DIRECTION ( 'NONE',  ( -3.491481338843133355E-15, 1.224646799147353207E-16, -1.000000000000000000 ) ) ;
#318 = APPLICATION_CONTEXT ( 'configuration controlled 3d designs of mechanical parts and assemblies' ) ;
#319 = DATE_TIME_ROLE ( 'classification_date' ) ;
#320 = AXIS2_PLACEMENT_3D ( 'NONE', #178, #37, #266 ) ;
#321 = EDGE_CURVE ( 'NONE', #17, #191, #237, .T. ) ;
#322 = DATE_AND_TIME ( #143, #326 ) ;
#323 = ORIENTED_EDGE ( 'NONE', *, *, #204, .T. ) ;
#324 = PERSON_AND_ORGANIZATION ( #69, #71 ) ;
#325 = EDGE_LOOP ( 'NONE', ( #43, #66, #249, #146 ) ) ;
#326 = LOCAL_TIME ( 15, 22, 18.00000000000000000, #84 ) ;
#327 = DIRECTION ( 'NONE',  ( 0.0000000000000000000, 1.000000000000000000, 0.0000000000000000000 ) ) ;
#328 = EDGE_CURVE ( 'NONE', #265, #331, #171, .T. ) ;
#329 = AXIS2_PLACEMENT_3D ( 'NONE', #301, #100, #123 ) ;
#330 = DATE_AND_TIME ( #241, #257 ) ;
#331 = VERTEX_POINT ( 'NONE', #236 ) ;
#332 = EDGE_CURVE ( 'NONE', #197, #297, #4, .T. ) ;
#333 = ORIENTED_EDGE ( 'NONE', *, *, #305, .T. ) ;
#334 = CARTESIAN_POINT ( 'NONE',  ( 3.501955782859662818E-13, -1.228320739544795303E-14, 100.2999999999999972 ) ) ;
#335 = AXIS2_PLACEMENT_3D ( 'NONE', #174, #276, #258 ) ;
#336 = FACE_OUTER_BOUND ( 'NONE', #325, .T. ) ;
#337 = PLANE ( 'NONE',  #223 ) ;
ENDSEC;
END-ISO-10303-21;
