ISO-10303-21;
HEADER;
FILE_DESCRIPTION (( 'STEP AP203' ),
    '1' );
FILE_NAME ('40068.step',
    '2021-09-02T13:22:16',
    ( '' ),
    ( '' ),
    'SwSTEP 2.0',
    'SolidWorks 2019',
    '' );
FILE_SCHEMA (( 'CONFIG_CONTROL_DESIGN' ));
ENDSEC;

DATA;
#1 = DIRECTION ( 'NONE',  ( 3.491481338843133355E-15, -1.224646799147353207E-16, 1.000000000000000000 ) ) ;
#2 = EDGE_LOOP ( 'NONE', ( #283, #54 ) ) ;
#3 = MECHANICAL_CONTEXT ( 'NONE', #51, 'mechanical' ) ;
#4 = ORIENTED_EDGE ( 'NONE', *, *, #38, .F. ) ;
#5 = COORDINATED_UNIVERSAL_TIME_OFFSET ( 1, 0, .AHEAD. ) ;
#6 = ORIENTED_EDGE ( 'NONE', *, *, #133, .F. ) ;
#7 = COORDINATED_UNIVERSAL_TIME_OFFSET ( 1, 0, .AHEAD. ) ;
#8 = APPROVAL_PERSON_ORGANIZATION ( #89, #330, #64 ) ;
#9 = PERSON_AND_ORGANIZATION ( #319, #225 ) ;
#10 = CONICAL_SURFACE ( 'NONE', #192, 2.500000000000000444, 0.7853981633974437271 ) ;
#11 = ADVANCED_FACE ( 'NONE', ( #165 ), #110, .T. ) ;
#12 = APPROVAL_DATE_TIME ( #309, #141 ) ;
#13 = LINE ( 'NONE', #266, #198 ) ;
#14 = AXIS2_PLACEMENT_3D ( 'NONE', #55, #277, #155 ) ;
#15 = ORIENTED_EDGE ( 'NONE', *, *, #127, .F. ) ;
#16 = DIRECTION ( 'NONE',  ( -3.491481338843133355E-15, 1.224646799147353207E-16, -1.000000000000000000 ) ) ;
#17 = LINE ( 'NONE', #144, #312 ) ;
#18 = CARTESIAN_POINT ( 'NONE',  ( 3.526396152231565067E-13, 2.499999999999988010, 101.0000000000000000 ) ) ;
#19 = AXIS2_PLACEMENT_3D ( 'NONE', #148, #75, #193 ) ;
#20 = CARTESIAN_POINT ( 'NONE',  ( 3.501955782859662818E-13, 3.199999999999988187, 100.2999999999999972 ) ) ;
#21 = DIRECTION ( 'NONE',  ( 1.903218546456021928E-15, 0.8571673007021098911, 0.5150380749100583744 ) ) ;
#22 = FACE_OUTER_BOUND ( 'NONE', #106, .T. ) ;
#23 = AXIS2_PLACEMENT_3D ( 'NONE', #154, #108, #86 ) ;
#24 = ORIENTED_EDGE ( 'NONE', *, *, #150, .F. ) ;
#25 = DIRECTION ( 'NONE',  ( 0.0000000000000000000, 1.000000000000000000, 0.0000000000000000000 ) ) ;
#26 = CARTESIAN_POINT ( 'NONE',  ( 1.368266062687023286E-30, 3.199999999999991740, 3.918869757271520106E-16 ) ) ;
#27 = VERTEX_POINT ( 'NONE', #213 ) ;
#28 = DIRECTION ( 'NONE',  ( -3.491481338843133355E-15, 1.224646799147353207E-16, -1.000000000000000000 ) ) ;
#29 = APPLICATION_PROTOCOL_DEFINITION ( 'international standard', 'config_control_design', 1994, #325 ) ;
#30 = DIRECTION ( 'NONE',  ( 1.000000000000000000, 0.0000000000000000000, 0.0000000000000000000 ) ) ;
#31 = ORIENTED_EDGE ( 'NONE', *, *, #153, .T. ) ;
#32 = PERSON_AND_ORGANIZATION_ROLE ( 'creator' ) ;
#33 = EDGE_CURVE ( 'NONE', #94, #301, #247, .T. ) ;
#34 = EDGE_CURVE ( 'NONE', #157, #169, #242, .T. ) ;
#35 = ORIENTED_EDGE ( 'NONE', *, *, #133, .T. ) ;
#36 = ORIENTED_EDGE ( 'NONE', *, *, #185, .F. ) ;
#37 = CIRCLE ( 'NONE', #14, 3.199999999999995737 ) ;
#38 = EDGE_CURVE ( 'NONE', #118, #169, #280, .T. ) ;
#39 = APPROVAL_STATUS ( 'not_yet_approved' ) ;
#40 = VERTEX_POINT ( 'NONE', #18 ) ;
#41 = DIRECTION ( 'NONE',  ( 0.0000000000000000000, 1.000000000000000000, 0.0000000000000000000 ) ) ;
#42 = DIRECTION ( 'NONE',  ( 0.0000000000000000000, 1.000000000000000000, 0.0000000000000000000 ) ) ;
#43 = CONICAL_SURFACE ( 'NONE', #237, 2.500000000000000444, 0.7853981633974437271 ) ;
#44 = ORIENTED_EDGE ( 'NONE', *, *, #127, .T. ) ;
#45 = CARTESIAN_POINT ( 'NONE',  ( 3.526396152231565067E-13, -1.236893267138826732E-14, 101.0000000000000000 ) ) ;
#46 = CC_DESIGN_PERSON_AND_ORGANIZATION_ASSIGNMENT ( #90, #186, ( #162 ) ) ;
#47 = DIRECTION ( 'NONE',  ( -3.491481338843133355E-15, 1.224646799147353207E-16, -1.000000000000000000 ) ) ;
#48 = ADVANCED_FACE ( 'NONE', ( #191 ), #43, .T. ) ;
#49 = LINE ( 'NONE', #246, #84 ) ;
#50 = DIRECTION ( 'NONE',  ( -3.491481338843133355E-15, 1.224646799147353207E-16, -1.000000000000000000 ) ) ;
#51 = APPLICATION_CONTEXT ( 'configuration controlled 3d designs of mechanical parts and assemblies' ) ;
#52 = EDGE_CURVE ( 'NONE', #169, #118, #95, .T. ) ;
#53 = DIRECTION ( 'NONE',  ( -3.491481338843133355E-15, 1.224646799147353207E-16, -1.000000000000000000 ) ) ;
#54 = ORIENTED_EDGE ( 'NONE', *, *, #184, .F. ) ;
#55 = CARTESIAN_POINT ( 'NONE',  ( 2.199633243471174140E-13, -7.715274834628325378E-15, 63.00000000000000000 ) ) ;
#56 = CYLINDRICAL_SURFACE ( 'NONE', #65, 3.199999999999991740 ) ;
#57 = CARTESIAN_POINT ( 'NONE',  ( 3.517666210923183554E-13, -2.500000000000012879, 101.0000000000000000 ) ) ;
#58 = APPLICATION_PROTOCOL_DEFINITION ( 'international standard', 'config_control_design', 1994, #51 ) ;
#59 = VECTOR ( 'NONE', #212, 1000.000000000000000 ) ;
#60 = PRODUCT_DEFINITION_FORMATION_WITH_SPECIFIED_SOURCE ( 'ANY', '', #178, .NOT_KNOWN. ) ;
#61 = DATE_TIME_ROLE ( 'creation_date' ) ;
#62 = APPROVAL_STATUS ( 'not_yet_approved' ) ;
#63 = ORIENTED_EDGE ( 'NONE', *, *, #188, .T. ) ;
#64 = APPROVAL_ROLE ( '' ) ;
#65 = AXIS2_PLACEMENT_3D ( 'NONE', #98, #299, #300 ) ;
#66 = CLOSED_SHELL ( 'NONE', ( #302, #11, #229, #107, #71 ) ) ;
#67 = CARTESIAN_POINT ( 'NONE',  ( 2.199633243471174140E-13, -7.715274834628325378E-15, 63.00000000000000000 ) ) ;
#68 = EDGE_LOOP ( 'NONE', ( #87, #121, #239 ) ) ;
#69 = ORIENTED_EDGE ( 'NONE', *, *, #74, .T. ) ;
#70 = DIRECTION ( 'NONE',  ( -3.491481338843133355E-15, 1.224646799147353207E-16, -1.000000000000000000 ) ) ;
#71 = ADVANCED_FACE ( 'NONE', ( #261 ), #97, .T. ) ;
#72 = DIRECTION ( 'NONE',  ( 0.0000000000000000000, 1.000000000000000000, 0.0000000000000000000 ) ) ;
#73 = AXIS2_PLACEMENT_3D ( 'NONE', #228, #28, #173 ) ;
#74 = EDGE_CURVE ( 'NONE', #124, #118, #13, .T. ) ;
#75 = DIRECTION ( 'NONE',  ( 3.491481338843133355E-15, -1.224646799147353207E-16, 1.000000000000000000 ) ) ;
#76 = ORIENTED_EDGE ( 'NONE', *, *, #187, .F. ) ;
#77 = ORIENTED_EDGE ( 'NONE', *, *, #33, .F. ) ;
#78 =( LENGTH_UNIT ( ) NAMED_UNIT ( * ) SI_UNIT ( .MILLI., .METRE. ) );
#79 = DIRECTION ( 'NONE',  ( 1.798245827342159528E-15, -0.8571673007021100021, 0.5150380749100580413 ) ) ;
#80 = DIRECTION ( 'NONE',  ( -3.491481338843133355E-15, 1.224646799147353207E-16, -1.000000000000000000 ) ) ;
#81 = LINE ( 'NONE', #196, #326 ) ;
#82 = EDGE_LOOP ( 'NONE', ( #77, #109 ) ) ;
#83 = CC_DESIGN_APPROVAL ( #194, ( #60 ) ) ;
#84 = VECTOR ( 'NONE', #324, 1000.000000000000000 ) ;
#85 = ADVANCED_BREP_SHAPE_REPRESENTATION ( '40068', ( #282, #292, #217 ), #297 ) ;
#86 = DIRECTION ( 'NONE',  ( 4.814824860968107149E-31, 1.000000000000000000, 1.355252715606885473E-16 ) ) ;
#87 = ORIENTED_EDGE ( 'NONE', *, *, #208, .F. ) ;
#88 = AXIS2_PLACEMENT_3D ( 'NONE', #149, #331, #41 ) ;
#89 = PERSON_AND_ORGANIZATION ( #319, #225 ) ;
#90 = PERSON_AND_ORGANIZATION ( #319, #225 ) ;
#91 = DATE_TIME_ROLE ( 'classification_date' ) ;
#92 = CARTESIAN_POINT ( 'NONE',  ( 2.199633243471174140E-13, 3.199999999999988187, 63.00000000000000000 ) ) ;
#93 = DIRECTION ( 'NONE',  ( 3.491481338843133355E-15, -1.224646799147353207E-16, 1.000000000000000000 ) ) ;
#94 = VERTEX_POINT ( 'NONE', #323 ) ;
#95 = CIRCLE ( 'NONE', #273, 3.199999999999995737 ) ;
#96 = EDGE_LOOP ( 'NONE', ( #310, #278, #145 ) ) ;
#97 = PLANE ( 'NONE',  #19 ) ;
#98 = CARTESIAN_POINT ( 'NONE',  ( 0.0000000000000000000, 0.0000000000000000000, 0.0000000000000000000 ) ) ;
#99 = CARTESIAN_POINT ( 'NONE',  ( 7.105146619184672527E-15, 3.199999999999988187, 1.922753980888207259 ) ) ;
#100 = AXIS2_PLACEMENT_3D ( 'NONE', #167, #262, #42 ) ;
#101 = UNCERTAINTY_MEASURE_WITH_UNIT (LENGTH_MEASURE( 1.000000000000000082E-05 ), #78, 'distance_accuracy_value', 'NONE');
#102 = CC_DESIGN_SECURITY_CLASSIFICATION ( #162, ( #60 ) ) ;
#103 = DIRECTION ( 'NONE',  ( -4.275831445896958607E-31, -1.000000000000000000, -1.224646799147353207E-16 ) ) ;
#104 = CARTESIAN_POINT ( 'NONE',  ( 1.137301789710143578E-13, -3.200000000000003286, 63.00000000000000000 ) ) ;
#105 = CC_DESIGN_PERSON_AND_ORGANIZATION_ASSIGNMENT ( #233, #32, ( #131 ) ) ;
#106 = EDGE_LOOP ( 'NONE', ( #31, #313, #15, #6 ) ) ;
#107 = ADVANCED_FACE ( 'NONE', ( #329 ), #291, .T. ) ;
#108 = DIRECTION ( 'NONE',  ( -3.491481338843133355E-15, 1.224646799147353207E-16, -1.000000000000000000 ) ) ;
#109 = ORIENTED_EDGE ( 'NONE', *, *, #311, .F. ) ;
#110 = CONICAL_SURFACE ( 'NONE', #113, 3.199999999999988631, 1.029744258676649871 ) ;
#111 = AXIS2_PLACEMENT_3D ( 'NONE', #303, #175, #202 ) ;
#112 = LOCAL_TIME ( 15, 22, 16.00000000000000000, #258 ) ;
#113 = AXIS2_PLACEMENT_3D ( 'NONE', #123, #93, #322 ) ;
#114 = APPROVAL_ROLE ( '' ) ;
#115 = DATE_AND_TIME ( #279, #285 ) ;
#116 = DATE_AND_TIME ( #135, #236 ) ;
#117 = PERSON_AND_ORGANIZATION ( #319, #225 ) ;
#118 = VERTEX_POINT ( 'NONE', #120 ) ;
#119 = ORIENTED_EDGE ( 'NONE', *, *, #166, .T. ) ;
#120 = CARTESIAN_POINT ( 'NONE',  ( 2.854713382922689954E-13, -3.200000000000003730, 63.00000000000000000 ) ) ;
#121 = ORIENTED_EDGE ( 'NONE', *, *, #220, .T. ) ;
#122 = CARTESIAN_POINT ( 'NONE',  ( 2.854713382922689449E-13, -3.200000000000012168, 100.2999999999999972 ) ) ;
#123 = CARTESIAN_POINT ( 'NONE',  ( 6.713259643457520368E-15, -2.354694508242573491E-16, 1.922753980888206815 ) ) ;
#124 = VERTEX_POINT ( 'NONE', #122 ) ;
#125 = ORIENTED_EDGE ( 'NONE', *, *, #184, .T. ) ;
#126 = DIRECTION ( 'NONE',  ( 3.491481338843133355E-15, -1.224646799147353207E-16, 1.000000000000000000 ) ) ;
#127 = EDGE_CURVE ( 'NONE', #157, #124, #241, .T. ) ;
#128 = CARTESIAN_POINT ( 'NONE',  ( 6.713259643457520368E-15, -2.354694508242573491E-16, 1.922753980888206815 ) ) ;
#129 = ORIENTED_EDGE ( 'NONE', *, *, #218, .F. ) ;
#130 = CIRCLE ( 'NONE', #88, 2.500000000000000444 ) ;
#131 = PRODUCT_DEFINITION ( 'UNKNOWN', '', #60, #197 ) ;
#132 = PLANE ( 'NONE',  #111 ) ;
#133 = EDGE_CURVE ( 'NONE', #40, #157, #17, .T. ) ;
#134 = CARTESIAN_POINT ( 'NONE',  ( 6.713259643457520368E-15, -2.354694508242573491E-16, 1.922753980888206815 ) ) ;
#135 = CALENDAR_DATE ( 2021, 2, 9 ) ;
#136 = APPROVAL_DATE_TIME ( #209, #194 ) ;
#137 = CC_DESIGN_APPROVAL ( #330, ( #131 ) ) ;
#138 = CIRCLE ( 'NONE', #100, 2.500000000000000444 ) ;
#139 = CC_DESIGN_APPROVAL ( #141, ( #162 ) ) ;
#140 = APPROVAL_STATUS ( 'not_yet_approved' ) ;
#141 = APPROVAL ( #140, 'UNSPECIFIED' ) ;
#142 = ORIENTED_EDGE ( 'NONE', *, *, #34, .T. ) ;
#143 = DATE_AND_TIME ( #234, #112 ) ;
#144 = CARTESIAN_POINT ( 'NONE',  ( 3.526396152231565067E-13, 2.499999999999988010, 101.0000000000000000 ) ) ;
#145 = ORIENTED_EDGE ( 'NONE', *, *, #187, .T. ) ;
#146 = CONICAL_SURFACE ( 'NONE', #259, 3.199999999999988631, 1.029744258676649871 ) ;
#147 = CARTESIAN_POINT ( 'NONE',  ( 1.368266062687025913E-30, 3.199999999999997957, 3.918869757271527502E-16 ) ) ;
#148 = CARTESIAN_POINT ( 'NONE',  ( 2.199633243471174140E-13, 2.399615652258957393E-32, 63.00000000000000000 ) ) ;
#149 = CARTESIAN_POINT ( 'NONE',  ( 3.526396152231565067E-13, -1.236893267138826732E-14, 101.0000000000000000 ) ) ;
#150 = EDGE_CURVE ( 'NONE', #327, #124, #49, .T. ) ;
#151 = CARTESIAN_POINT ( 'NONE',  ( 2.199633243471174140E-13, -7.715274834628325378E-15, 63.00000000000000000 ) ) ;
#152 = CARTESIAN_POINT ( 'NONE',  ( 6.713259643457518791E-15, -3.199999999999989075, 1.922753980888206371 ) ) ;
#153 = EDGE_CURVE ( 'NONE', #40, #327, #130, .T. ) ;
#154 = CARTESIAN_POINT ( 'NONE',  ( 6.713259643457520368E-15, -2.354694508242573491E-16, 1.922753980888206815 ) ) ;
#155 = DIRECTION ( 'NONE',  ( 0.0000000000000000000, 1.000000000000000000, 0.0000000000000000000 ) ) ;
#156 = AXIS2_PLACEMENT_3D ( 'NONE', #335, #126, #103 ) ;
#157 = VERTEX_POINT ( 'NONE', #20 ) ;
#158 = PERSON_AND_ORGANIZATION ( #319, #225 ) ;
#159 = APPROVAL_ROLE ( '' ) ;
#160 = COORDINATED_UNIVERSAL_TIME_OFFSET ( 1, 0, .AHEAD. ) ;
#161 = CARTESIAN_POINT ( 'NONE',  ( 0.0000000000000000000, 0.0000000000000000000, 0.0000000000000000000 ) ) ;
#162 = SECURITY_CLASSIFICATION ( '', '', #257 ) ;
#163 = AXIS2_PLACEMENT_3D ( 'NONE', #190, #70, #295 ) ;
#164 = SHAPE_DEFINITION_REPRESENTATION ( #305, #85 ) ;
#165 = FACE_OUTER_BOUND ( 'NONE', #68, .T. ) ;
#166 = EDGE_CURVE ( 'NONE', #301, #27, #245, .T. ) ;
#167 = CARTESIAN_POINT ( 'NONE',  ( 3.526396152231565067E-13, -1.236893267138826732E-14, 101.0000000000000000 ) ) ;
#168 = VECTOR ( 'NONE', #50, 1000.000000000000000 ) ;
#169 = VERTEX_POINT ( 'NONE', #92 ) ;
#170 = CARTESIAN_POINT ( 'NONE',  ( 0.0000000000000000000, 0.0000000000000000000, 0.0000000000000000000 ) ) ;
#171 = DIRECTION ( 'NONE',  ( -3.491481338843133355E-15, 1.224646799147353207E-16, -1.000000000000000000 ) ) ;
#172 = DIRECTION ( 'NONE',  ( 0.0000000000000000000, 1.000000000000000000, 0.0000000000000000000 ) ) ;
#173 = DIRECTION ( 'NONE',  ( 0.0000000000000000000, 1.000000000000000000, 0.0000000000000000000 ) ) ;
#174 = ORIENTED_EDGE ( 'NONE', *, *, #166, .F. ) ;
#175 = DIRECTION ( 'NONE',  ( -3.491481338843133355E-15, 1.224646799147353207E-16, -1.000000000000000000 ) ) ;
#176 = DIRECTION ( 'NONE',  ( 4.275831445896958607E-31, 1.000000000000000000, 1.224646799147353207E-16 ) ) ;
#177 = FACE_OUTER_BOUND ( 'NONE', #96, .T. ) ;
#178 = PRODUCT ( '40068', '40068', '', ( #3 ) ) ;
#179 = CIRCLE ( 'NONE', #23, 3.199999999999988631 ) ;
#180 = DIRECTION ( 'NONE',  ( -3.491481338843133355E-15, 1.224646799147353207E-16, -1.000000000000000000 ) ) ;
#181 = PERSON_AND_ORGANIZATION_ROLE ( 'design_owner' ) ;
#182 = PERSON_AND_ORGANIZATION ( #319, #225 ) ;
#183 = VECTOR ( 'NONE', #223, 1000.000000000000000 ) ;
#184 = EDGE_CURVE ( 'NONE', #327, #40, #138, .T. ) ;
#185 = EDGE_CURVE ( 'NONE', #94, #263, #224, .T. ) ;
#186 = PERSON_AND_ORGANIZATION_ROLE ( 'classification_officer' ) ;
#187 = EDGE_CURVE ( 'NONE', #27, #263, #179, .T. ) ;
#188 = EDGE_CURVE ( 'NONE', #124, #157, #207, .T. ) ;
#189 = DIRECTION ( 'NONE',  ( 0.0000000000000000000, 1.000000000000000000, 0.0000000000000000000 ) ) ;
#190 = CARTESIAN_POINT ( 'NONE',  ( 3.501955782859662818E-13, -1.228320739544795303E-14, 100.2999999999999972 ) ) ;
#191 = FACE_OUTER_BOUND ( 'NONE', #211, .T. ) ;
#192 = AXIS2_PLACEMENT_3D ( 'NONE', #337, #231, #25 ) ;
#193 = DIRECTION ( 'NONE',  ( -4.275831445896958607E-31, -1.000000000000000000, -1.224646799147353207E-16 ) ) ;
#194 = APPROVAL ( #39, 'UNSPECIFIED' ) ;
#195 = DIRECTION ( 'NONE',  ( -3.491481338843133355E-15, 1.224646799147353207E-16, -1.000000000000000000 ) ) ;
#196 = CARTESIAN_POINT ( 'NONE',  ( 7.105146619184672527E-15, 3.199999999999988187, 1.922753980888207259 ) ) ;
#197 = DESIGN_CONTEXT ( 'detailed design', #325, 'design' ) ;
#198 = VECTOR ( 'NONE', #16, 1000.000000000000000 ) ;
#199 = FACE_OUTER_BOUND ( 'NONE', #289, .T. ) ;
#200 = CYLINDRICAL_SURFACE ( 'NONE', #221, 3.199999999999997957 ) ;
#201 = EDGE_LOOP ( 'NONE', ( #174, #318, #288, #76 ) ) ;
#202 = DIRECTION ( 'NONE',  ( 4.275831445896958607E-31, 1.000000000000000000, 1.224646799147353207E-16 ) ) ;
#203 = FACE_OUTER_BOUND ( 'NONE', #2, .T. ) ;
#204 = AXIS2_PLACEMENT_3D ( 'NONE', #128, #180, #249 ) ;
#205 = CC_DESIGN_DATE_AND_TIME_ASSIGNMENT ( #143, #91, ( #162 ) ) ;
#206 = PERSON_AND_ORGANIZATION_ROLE ( 'design_supplier' ) ;
#207 = CIRCLE ( 'NONE', #73, 3.200000000000000178 ) ;
#208 = EDGE_CURVE ( 'NONE', #260, #27, #268, .T. ) ;
#209 = DATE_AND_TIME ( #210, #334 ) ;
#210 = CALENDAR_DATE ( 2021, 2, 9 ) ;
#211 = EDGE_LOOP ( 'NONE', ( #24, #125, #35, #328 ) ) ;
#212 = DIRECTION ( 'NONE',  ( -3.491481338843133355E-15, 1.224646799147353207E-16, -1.000000000000000000 ) ) ;
#213 = CARTESIAN_POINT ( 'NONE',  ( 6.713259643457518791E-15, -3.199999999999989075, 1.922753980888206371 ) ) ;
#214 = ADVANCED_FACE ( 'NONE', ( #203 ), #132, .F. ) ;
#215 = ORIENTED_EDGE ( 'NONE', *, *, #74, .F. ) ;
#216 = DIRECTION ( 'NONE',  ( -2.468850131082276388E-15, 0.7071067811865443531, -0.7071067811865506814 ) ) ;
#217 = AXIS2_PLACEMENT_3D ( 'NONE', #161, #235, #30 ) ;
#218 = EDGE_CURVE ( 'NONE', #263, #27, #251, .T. ) ;
#219 = APPROVAL_PERSON_ORGANIZATION ( #9, #194, #159 ) ;
#220 = EDGE_CURVE ( 'NONE', #260, #263, #81, .T. ) ;
#221 = AXIS2_PLACEMENT_3D ( 'NONE', #308, #80, #176 ) ;
#222 = DIRECTION ( 'NONE',  ( -3.491481338843133355E-15, 1.224646799147353207E-16, -1.000000000000000000 ) ) ;
#223 = DIRECTION ( 'NONE',  ( -3.491481338843133355E-15, 1.224646799147353207E-16, -1.000000000000000000 ) ) ;
#224 = LINE ( 'NONE', #26, #168 ) ;
#225 = ORGANIZATION ( 'UNSPECIFIED', 'UNSPECIFIED', '' ) ;
#226 = CARTESIAN_POINT ( 'NONE',  ( 0.0000000000000000000, 0.0000000000000000000, 0.0000000000000000000 ) ) ;
#227 = ORIENTED_EDGE ( 'NONE', *, *, #38, .T. ) ;
#228 = CARTESIAN_POINT ( 'NONE',  ( 3.501955782859662818E-13, -1.228320739544795303E-14, 100.2999999999999972 ) ) ;
#229 = ADVANCED_FACE ( 'NONE', ( #177 ), #146, .T. ) ;
#230 =( NAMED_UNIT ( * ) PLANE_ANGLE_UNIT ( ) SI_UNIT ( $, .RADIAN. ) );
#231 = DIRECTION ( 'NONE',  ( -3.491481338843133355E-15, 1.224646799147353207E-16, -1.000000000000000000 ) ) ;
#232 = AXIS2_PLACEMENT_3D ( 'NONE', #151, #222, #294 ) ;
#233 = PERSON_AND_ORGANIZATION ( #319, #225 ) ;
#234 = CALENDAR_DATE ( 2021, 2, 9 ) ;
#235 = DIRECTION ( 'NONE',  ( 0.0000000000000000000, 0.0000000000000000000, 1.000000000000000000 ) ) ;
#236 = LOCAL_TIME ( 15, 22, 16.00000000000000000, #5 ) ;
#237 = AXIS2_PLACEMENT_3D ( 'NONE', #45, #171, #172 ) ;
#238 = CALENDAR_DATE ( 2021, 2, 9 ) ;
#239 = ORIENTED_EDGE ( 'NONE', *, *, #218, .T. ) ;
#240 = CARTESIAN_POINT ( 'NONE',  ( 3.918869757271506794E-16, -3.199999999999991740, -3.918869757271533911E-16 ) ) ;
#241 = CIRCLE ( 'NONE', #163, 3.200000000000000178 ) ;
#242 = LINE ( 'NONE', #147, #183 ) ;
#243 = DIRECTION ( 'NONE',  ( -3.491481338843133355E-15, 1.224646799147353207E-16, -1.000000000000000000 ) ) ;
#244 = ADVANCED_FACE ( 'NONE', ( #274 ), #254, .T. ) ;
#245 = LINE ( 'NONE', #240, #59 ) ;
#246 = CARTESIAN_POINT ( 'NONE',  ( 3.529457769229433572E-13, -2.500000000000012879, 101.0000000000000000 ) ) ;
#247 = CIRCLE ( 'NONE', #232, 3.199999999999995737 ) ;
#248 = CC_DESIGN_PERSON_AND_ORGANIZATION_ASSIGNMENT ( #182, #206, ( #60 ) ) ;
#249 = DIRECTION ( 'NONE',  ( 4.814824860968107149E-31, 1.000000000000000000, 1.355252715606885473E-16 ) ) ;
#250 = DIRECTION ( 'NONE',  ( 4.275831445896958607E-31, 1.000000000000000000, 1.224646799147353207E-16 ) ) ;
#251 = CIRCLE ( 'NONE', #204, 3.199999999999988631 ) ;
#252 = CARTESIAN_POINT ( 'NONE',  ( 0.0000000000000000000, 0.0000000000000000000, 0.0000000000000000000 ) ) ;
#253 = EDGE_LOOP ( 'NONE', ( #272, #119, #129, #36 ) ) ;
#254 = CYLINDRICAL_SURFACE ( 'NONE', #293, 3.199999999999997957 ) ;
#255 = ADVANCED_FACE ( 'NONE', ( #22 ), #10, .T. ) ;
#256 = COORDINATED_UNIVERSAL_TIME_OFFSET ( 1, 0, .AHEAD. ) ;
#257 = SECURITY_CLASSIFICATION_LEVEL ( 'unclassified' ) ;
#258 = COORDINATED_UNIVERSAL_TIME_OFFSET ( 1, 0, .AHEAD. ) ;
#259 = AXIS2_PLACEMENT_3D ( 'NONE', #134, #1, #270 ) ;
#260 = VERTEX_POINT ( 'NONE', #226 ) ;
#261 = FACE_OUTER_BOUND ( 'NONE', #82, .T. ) ;
#262 = DIRECTION ( 'NONE',  ( -3.491481338843133355E-15, 1.224646799147353207E-16, -1.000000000000000000 ) ) ;
#263 = VERTEX_POINT ( 'NONE', #99 ) ;
#264 = ADVANCED_FACE ( 'NONE', ( #199 ), #296, .F. ) ;
#265 = ORIENTED_EDGE ( 'NONE', *, *, #52, .F. ) ;
#266 = CARTESIAN_POINT ( 'NONE',  ( 3.918869757271514683E-16, -3.199999999999997957, -3.918869757271540814E-16 ) ) ;
#267 = DIRECTION ( 'NONE',  ( 4.275831445896958607E-31, 1.000000000000000000, 1.224646799147353207E-16 ) ) ;
#268 = LINE ( 'NONE', #152, #333 ) ;
#269 = FACE_OUTER_BOUND ( 'NONE', #320, .T. ) ;
#270 = DIRECTION ( 'NONE',  ( -4.814824860968107149E-31, -1.000000000000000000, -1.355252715606885473E-16 ) ) ;
#271 = CC_DESIGN_PERSON_AND_ORGANIZATION_ASSIGNMENT ( #158, #181, ( #178 ) ) ;
#272 = ORIENTED_EDGE ( 'NONE', *, *, #33, .T. ) ;
#273 = AXIS2_PLACEMENT_3D ( 'NONE', #67, #47, #72 ) ;
#274 = FACE_OUTER_BOUND ( 'NONE', #336, .T. ) ;
#275 = LOCAL_TIME ( 15, 22, 16.00000000000000000, #7 ) ;
#276 = ORIENTED_EDGE ( 'NONE', *, *, #52, .T. ) ;
#277 = DIRECTION ( 'NONE',  ( -3.491481338843133355E-15, 1.224646799147353207E-16, -1.000000000000000000 ) ) ;
#278 = ORIENTED_EDGE ( 'NONE', *, *, #208, .T. ) ;
#279 = CALENDAR_DATE ( 2021, 2, 9 ) ;
#280 = CIRCLE ( 'NONE', #307, 3.199999999999995737 ) ;
#281 = PERSON_AND_ORGANIZATION_ROLE ( 'creator' ) ;
#282 = MANIFOLD_SOLID_BREP ( 'Corps-Déplacer/Copier1[1]', #287 ) ;
#283 = ORIENTED_EDGE ( 'NONE', *, *, #153, .F. ) ;
#284 = APPROVAL_DATE_TIME ( #116, #330 ) ;
#285 = LOCAL_TIME ( 15, 22, 16.00000000000000000, #160 ) ;
#286 = AXIS2_PLACEMENT_3D ( 'NONE', #170, #243, #267 ) ;
#287 = CLOSED_SHELL ( 'NONE', ( #255, #244, #264, #306, #48, #214 ) ) ;
#288 = ORIENTED_EDGE ( 'NONE', *, *, #185, .T. ) ;
#289 = EDGE_LOOP ( 'NONE', ( #276, #227 ) ) ;
#290 = CARTESIAN_POINT ( 'NONE',  ( 2.199633243471174140E-13, -7.715274834628325378E-15, 63.00000000000000000 ) ) ;
#291 = CYLINDRICAL_SURFACE ( 'NONE', #286, 3.199999999999991740 ) ;
#292 = MANIFOLD_SOLID_BREP ( 'Corps-Déplacer/Copier1[2]', #66 ) ;
#293 = AXIS2_PLACEMENT_3D ( 'NONE', #252, #53, #250 ) ;
#294 = DIRECTION ( 'NONE',  ( 0.0000000000000000000, 1.000000000000000000, 0.0000000000000000000 ) ) ;
#295 = DIRECTION ( 'NONE',  ( 0.0000000000000000000, 1.000000000000000000, 0.0000000000000000000 ) ) ;
#296 = PLANE ( 'NONE',  #156 ) ;
#297 =( GEOMETRIC_REPRESENTATION_CONTEXT ( 3 ) GLOBAL_UNCERTAINTY_ASSIGNED_CONTEXT ( ( #101 ) ) GLOBAL_UNIT_ASSIGNED_CONTEXT ( ( #78, #230, #314 ) ) REPRESENTATION_CONTEXT ( 'NONE', 'WORKASPACE' ) );
#298 = APPROVAL_PERSON_ORGANIZATION ( #317, #141, #114 ) ;
#299 = DIRECTION ( 'NONE',  ( -3.491481338843133355E-15, 1.224646799147353207E-16, -1.000000000000000000 ) ) ;
#300 = DIRECTION ( 'NONE',  ( 4.275831445896958607E-31, 1.000000000000000000, 1.224646799147353207E-16 ) ) ;
#301 = VERTEX_POINT ( 'NONE', #104 ) ;
#302 = ADVANCED_FACE ( 'NONE', ( #332 ), #56, .T. ) ;
#303 = CARTESIAN_POINT ( 'NONE',  ( 3.526396152231565067E-13, 1.874699728327303672E-32, 101.0000000000000000 ) ) ;
#304 = ORIENTED_EDGE ( 'NONE', *, *, #34, .F. ) ;
#305 = PRODUCT_DEFINITION_SHAPE ( 'NONE', 'NONE',  #131 ) ;
#306 = ADVANCED_FACE ( 'NONE', ( #269 ), #200, .T. ) ;
#307 = AXIS2_PLACEMENT_3D ( 'NONE', #290, #195, #189 ) ;
#308 = CARTESIAN_POINT ( 'NONE',  ( 0.0000000000000000000, 0.0000000000000000000, 0.0000000000000000000 ) ) ;
#309 = DATE_AND_TIME ( #238, #275 ) ;
#311 = EDGE_CURVE ( 'NONE', #301, #94, #37, .T. ) ;
#310 = ORIENTED_EDGE ( 'NONE', *, *, #220, .F. ) ;
#312 = VECTOR ( 'NONE', #216, 1000.000000000000000 ) ;
#313 = ORIENTED_EDGE ( 'NONE', *, *, #150, .T. ) ;
#314 =( NAMED_UNIT ( * ) SI_UNIT ( $, .STERADIAN. ) SOLID_ANGLE_UNIT ( ) );
#315 = CC_DESIGN_DATE_AND_TIME_ASSIGNMENT ( #115, #61, ( #131 ) ) ;
#316 = PRODUCT_RELATED_PRODUCT_CATEGORY ( 'detail', '', ( #178 ) ) ;
#317 = PERSON_AND_ORGANIZATION ( #319, #225 ) ;
#318 = ORIENTED_EDGE ( 'NONE', *, *, #311, .T. ) ;
#319 = PERSON ( 'UNSPECIFIED', 'UNSPECIFIED', 'UNSPECIFIED', ('UNSPECIFIED'), ('UNSPECIFIED'), ('UNSPECIFIED') ) ;
#320 = EDGE_LOOP ( 'NONE', ( #215, #63, #142, #4 ) ) ;
#321 = CC_DESIGN_PERSON_AND_ORGANIZATION_ASSIGNMENT ( #117, #281, ( #60 ) ) ;
#322 = DIRECTION ( 'NONE',  ( -4.814824860968107149E-31, -1.000000000000000000, -1.355252715606885473E-16 ) ) ;
#323 = CARTESIAN_POINT ( 'NONE',  ( 2.199633243471174140E-13, 3.199999999999988187, 63.00000000000000000 ) ) ;
#324 = DIRECTION ( 'NONE',  ( -2.382254525458728119E-15, -0.7071067811865441310, -0.7071067811865507924 ) ) ;
#325 = APPLICATION_CONTEXT ( 'configuration controlled 3d designs of mechanical parts and assemblies' ) ;
#326 = VECTOR ( 'NONE', #21, 1000.000000000000114 ) ;
#327 = VERTEX_POINT ( 'NONE', #57 ) ;
#328 = ORIENTED_EDGE ( 'NONE', *, *, #188, .F. ) ;
#329 = FACE_OUTER_BOUND ( 'NONE', #201, .T. ) ;
#330 = APPROVAL ( #62, 'UNSPECIFIED' ) ;
#331 = DIRECTION ( 'NONE',  ( -3.491481338843133355E-15, 1.224646799147353207E-16, -1.000000000000000000 ) ) ;
#332 = FACE_OUTER_BOUND ( 'NONE', #253, .T. ) ;
#333 = VECTOR ( 'NONE', #79, 1000.000000000000000 ) ;
#334 = LOCAL_TIME ( 15, 22, 16.00000000000000000, #256 ) ;
#335 = CARTESIAN_POINT ( 'NONE',  ( 2.199633243471174140E-13, 2.399615652258957393E-32, 63.00000000000000000 ) ) ;
#336 = EDGE_LOOP ( 'NONE', ( #44, #69, #265, #304 ) ) ;
#337 = CARTESIAN_POINT ( 'NONE',  ( 3.526396152231565067E-13, -1.236893267138826732E-14, 101.0000000000000000 ) ) ;
ENDSEC;
END-ISO-10303-21;
