ISO-10303-21;
HEADER;
FILE_DESCRIPTION (( 'STEP AP203' ),
    '1' );
FILE_NAME ('40067.step',
    '2021-09-02T13:22:15',
    ( '' ),
    ( '' ),
    'SwSTEP 2.0',
    'SolidWorks 2019',
    '' );
FILE_SCHEMA (( 'CONFIG_CONTROL_DESIGN' ));
ENDSEC;

DATA;
#1 = DIRECTION ( 'NONE',  ( -3.491481338843133355E-15, 1.224646799147353207E-16, -1.000000000000000000 ) ) ;
#2 = AXIS2_PLACEMENT_3D ( 'NONE', #44, #167, #215 ) ;
#3 = ORIENTED_EDGE ( 'NONE', *, *, #252, .T. ) ;
#4 = ORIENTED_EDGE ( 'NONE', *, *, #84, .F. ) ;
#5 = DIRECTION ( 'NONE',  ( -4.891250652412045219E-31, -1.000000000000000000, -1.376764663473661394E-16 ) ) ;
#6 = VECTOR ( 'NONE', #324, 1000.000000000000000 ) ;
#7 = EDGE_LOOP ( 'NONE', ( #213, #111 ) ) ;
#8 = ADVANCED_FACE ( 'NONE', ( #103 ), #314, .T. ) ;
#9 = ORIENTED_EDGE ( 'NONE', *, *, #250, .F. ) ;
#10 = DIRECTION ( 'NONE',  ( -3.491481338843133355E-15, 1.224646799147353207E-16, -1.000000000000000000 ) ) ;
#11 = DIRECTION ( 'NONE',  ( -2.468850131082276388E-15, 0.7071067811865443531, -0.7071067811865506814 ) ) ;
#12 = CARTESIAN_POINT ( 'NONE',  ( 3.857637417314146912E-16, -3.149999999999997691, -3.857637417314173043E-16 ) ) ;
#13 = CARTESIAN_POINT ( 'NONE',  ( 3.526396152231565067E-13, 2.449999999999987743, 101.0000000000000000 ) ) ;
#14 = LINE ( 'NONE', #140, #311 ) ;
#15 = CC_DESIGN_APPROVAL ( #45, ( #258 ) ) ;
#16 = AXIS2_PLACEMENT_3D ( 'NONE', #36, #233, #319 ) ;
#17 = CARTESIAN_POINT ( 'NONE',  ( 1.346886905457541024E-30, 3.149999999999997691, 3.857637417314159731E-16 ) ) ;
#18 = PERSON_AND_ORGANIZATION ( #187, #69 ) ;
#19 = ORIENTED_EDGE ( 'NONE', *, *, #209, .T. ) ;
#20 = PERSON_AND_ORGANIZATION ( #187, #69 ) ;
#21 = CALENDAR_DATE ( 2021, 2, 9 ) ;
#22 = DIRECTION ( 'NONE',  ( 1.000000000000000000, 0.0000000000000000000, 0.0000000000000000000 ) ) ;
#23 = EDGE_CURVE ( 'NONE', #60, #328, #129, .T. ) ;
#24 = ORIENTED_EDGE ( 'NONE', *, *, #252, .F. ) ;
#25 = ORIENTED_EDGE ( 'NONE', *, *, #205, .F. ) ;
#26 = EDGE_LOOP ( 'NONE', ( #30, #137, #307, #40 ) ) ;
#27 = CARTESIAN_POINT ( 'NONE',  ( 6.994128703259912623E-15, 3.149999999999987921, 1.892710949936829090 ) ) ;
#28 = CC_DESIGN_DATE_AND_TIME_ASSIGNMENT ( #70, #251, ( #256 ) ) ;
#29 = ADVANCED_FACE ( 'NONE', ( #104 ), #152, .T. ) ;
#30 = ORIENTED_EDGE ( 'NONE', *, *, #266, .F. ) ;
#31 = ORIENTED_EDGE ( 'NONE', *, *, #209, .F. ) ;
#32 = AXIS2_PLACEMENT_3D ( 'NONE', #292, #54, #262 ) ;
#33 = CALENDAR_DATE ( 2021, 2, 9 ) ;
#34 = CC_DESIGN_SECURITY_CLASSIFICATION ( #55, ( #258 ) ) ;
#35 = ORIENTED_EDGE ( 'NONE', *, *, #23, .F. ) ;
#36 = CARTESIAN_POINT ( 'NONE',  ( 2.199633243471174140E-13, 2.362121657692410679E-32, 63.00000000000000000 ) ) ;
#37 = EDGE_LOOP ( 'NONE', ( #35, #19, #193 ) ) ;
#38 = DIRECTION ( 'NONE',  ( 3.491481338843133355E-15, -1.224646799147353207E-16, 1.000000000000000000 ) ) ;
#39 = CARTESIAN_POINT ( 'NONE',  ( 2.199633243471174140E-13, -7.715274834628325378E-15, 63.00000000000000000 ) ) ;
#40 = ORIENTED_EDGE ( 'NONE', *, *, #322, .F. ) ;
#41 = FACE_OUTER_BOUND ( 'NONE', #118, .T. ) ;
#42 = CARTESIAN_POINT ( 'NONE',  ( 3.526396152231565067E-13, 1.837205733760756959E-32, 101.0000000000000000 ) ) ;
#43 = ADVANCED_FACE ( 'NONE', ( #85 ), #57, .T. ) ;
#44 = CARTESIAN_POINT ( 'NONE',  ( 2.199633243471174140E-13, -7.715274834628325378E-15, 63.00000000000000000 ) ) ;
#45 = APPROVAL ( #337, 'UNSPECIFIED' ) ;
#46 = SECURITY_CLASSIFICATION_LEVEL ( 'unclassified' ) ;
#47 = ORIENTED_EDGE ( 'NONE', *, *, #247, .F. ) ;
#48 = CONICAL_SURFACE ( 'NONE', #271, 2.450000000000000178, 0.7853981633974437271 ) ;
#49 = ADVANCED_FACE ( 'NONE', ( #320 ), #206, .T. ) ;
#50 = EDGE_CURVE ( 'NONE', #328, #293, #281, .T. ) ;
#51 = EDGE_LOOP ( 'NONE', ( #310, #227, #110, #4 ) ) ;
#52 = CARTESIAN_POINT ( 'NONE',  ( 3.526396152231565067E-13, -1.236893267138826732E-14, 101.0000000000000000 ) ) ;
#53 = VERTEX_POINT ( 'NONE', #56 ) ;
#54 = DIRECTION ( 'NONE',  ( -3.491481338843133355E-15, 1.224646799147353207E-16, -1.000000000000000000 ) ) ;
#55 = SECURITY_CLASSIFICATION ( '', '', #46 ) ;
#56 = CARTESIAN_POINT ( 'NONE',  ( 2.854652150582731463E-13, -3.150000000000012346, 100.2999999999999972 ) ) ;
#57 = CONICAL_SURFACE ( 'NONE', #83, 3.149999999999988365, 1.029744258676649649 ) ;
#58 = CARTESIAN_POINT ( 'NONE',  ( 2.199633243471174140E-13, 3.149999999999987921, 63.00000000000000000 ) ) ;
#59 = ORIENTED_EDGE ( 'NONE', *, *, #50, .T. ) ;
#60 = VERTEX_POINT ( 'NONE', #211 ) ;
#61 = CARTESIAN_POINT ( 'NONE',  ( 3.501955782859662818E-13, -1.228320739544795303E-14, 100.2999999999999972 ) ) ;
#62 = DIRECTION ( 'NONE',  ( -2.382254525458728119E-15, -0.7071067811865441310, -0.7071067811865507924 ) ) ;
#63 = CC_DESIGN_APPROVAL ( #162, ( #256 ) ) ;
#64 = CC_DESIGN_DATE_AND_TIME_ASSIGNMENT ( #229, #99, ( #55 ) ) ;
#65 = CARTESIAN_POINT ( 'NONE',  ( 2.854652150582732472E-13, -3.150000000000003464, 63.00000000000000000 ) ) ;
#66 = EDGE_LOOP ( 'NONE', ( #299, #216 ) ) ;
#67 = CARTESIAN_POINT ( 'NONE',  ( 6.608364961528495170E-15, -3.149999999999988809, 1.892710949936828202 ) ) ;
#68 = APPLICATION_PROTOCOL_DEFINITION ( 'international standard', 'config_control_design', 1994, #107 ) ;
#69 = ORGANIZATION ( 'UNSPECIFIED', 'UNSPECIFIED', '' ) ;
#70 = DATE_AND_TIME ( #147, #117 ) ;
#71 = APPROVAL_DATE_TIME ( #224, #45 ) ;
#72 = EDGE_LOOP ( 'NONE', ( #31, #316, #59 ) ) ;
#73 = AXIS2_PLACEMENT_3D ( 'NONE', #80, #79, #177 ) ;
#74 = CARTESIAN_POINT ( 'NONE',  ( 6.994128703259912623E-15, 3.149999999999987921, 1.892710949936829090 ) ) ;
#75 = COORDINATED_UNIVERSAL_TIME_OFFSET ( 1, 0, .AHEAD. ) ;
#76 = DIRECTION ( 'NONE',  ( 4.275831445896958607E-31, 1.000000000000000000, 1.224646799147353207E-16 ) ) ;
#77 = ORIENTED_EDGE ( 'NONE', *, *, #146, .F. ) ;
#78 = VECTOR ( 'NONE', #11, 1000.000000000000000 ) ;
#79 = DIRECTION ( 'NONE',  ( -3.491481338843133355E-15, 1.224646799147353207E-16, -1.000000000000000000 ) ) ;
#80 = CARTESIAN_POINT ( 'NONE',  ( 6.608364961528496748E-15, -2.317902406551283450E-16, 1.892710949936828646 ) ) ;
#81 = APPROVAL_ROLE ( '' ) ;
#82 = ORIENTED_EDGE ( 'NONE', *, *, #97, .T. ) ;
#83 = AXIS2_PLACEMENT_3D ( 'NONE', #288, #231, #5 ) ;
#84 = EDGE_CURVE ( 'NONE', #293, #328, #237, .T. ) ;
#85 = FACE_OUTER_BOUND ( 'NONE', #72, .T. ) ;
#86 = DIRECTION ( 'NONE',  ( -3.491481338843133355E-15, 1.224646799147353207E-16, -1.000000000000000000 ) ) ;
#87 = FACE_OUTER_BOUND ( 'NONE', #37, .T. ) ;
#88 = AXIS2_PLACEMENT_3D ( 'NONE', #182, #131, #76 ) ;
#89 = DIRECTION ( 'NONE',  ( -4.891250652412045219E-31, -1.000000000000000000, -1.376764663473661394E-16 ) ) ;
#90 = LOCAL_TIME ( 15, 22, 15.00000000000000000, #255 ) ;
#91 = VERTEX_POINT ( 'NONE', #108 ) ;
#92 = DIRECTION ( 'NONE',  ( 4.275831445896958607E-31, 1.000000000000000000, 1.224646799147353207E-16 ) ) ;
#93 = EDGE_CURVE ( 'NONE', #200, #276, #284, .T. ) ;
#94 = APPROVAL_PERSON_ORGANIZATION ( #253, #162, #96 ) ;
#95 = CALENDAR_DATE ( 2021, 2, 9 ) ;
#96 = APPROVAL_ROLE ( '' ) ;
#97 = EDGE_CURVE ( 'NONE', #321, #53, #100, .T. ) ;
#98 = CC_DESIGN_PERSON_AND_ORGANIZATION_ASSIGNMENT ( #195, #121, ( #176 ) ) ;
#99 = DATE_TIME_ROLE ( 'classification_date' ) ;
#100 = CIRCLE ( 'NONE', #102, 3.149999999999999911 ) ;
#101 = VECTOR ( 'NONE', #119, 1000.000000000000000 ) ;
#102 = AXIS2_PLACEMENT_3D ( 'NONE', #285, #294, #160 ) ;
#103 = FACE_OUTER_BOUND ( 'NONE', #51, .T. ) ;
#104 = FACE_OUTER_BOUND ( 'NONE', #181, .T. ) ;
#105 = CIRCLE ( 'NONE', #312, 3.149999999999999911 ) ;
#106 = DIRECTION ( 'NONE',  ( -3.491481338843133355E-15, 1.224646799147353207E-16, -1.000000000000000000 ) ) ;
#107 = APPLICATION_CONTEXT ( 'configuration controlled 3d designs of mechanical parts and assemblies' ) ;
#108 = CARTESIAN_POINT ( 'NONE',  ( 2.199633243471174140E-13, 3.149999999999987921, 63.00000000000000000 ) ) ;
#109 = ORIENTED_EDGE ( 'NONE', *, *, #180, .F. ) ;
#110 = ORIENTED_EDGE ( 'NONE', *, *, #205, .T. ) ;
#111 = ORIENTED_EDGE ( 'NONE', *, *, #331, .F. ) ;
#112 = CARTESIAN_POINT ( 'NONE',  ( 0.0000000000000000000, 0.0000000000000000000, 0.0000000000000000000 ) ) ;
#113 = CYLINDRICAL_SURFACE ( 'NONE', #153, 3.149999999999997691 ) ;
#114 = CARTESIAN_POINT ( 'NONE',  ( 3.529396536889475586E-13, -2.450000000000013056, 101.0000000000000000 ) ) ;
#115 = AXIS2_PLACEMENT_3D ( 'NONE', #134, #246, #269 ) ;
#116 = DIRECTION ( 'NONE',  ( 0.0000000000000000000, 1.000000000000000000, 0.0000000000000000000 ) ) ;
#117 = LOCAL_TIME ( 15, 22, 15.00000000000000000, #120 ) ;
#118 = EDGE_LOOP ( 'NONE', ( #82, #163, #109, #240 ) ) ;
#119 = DIRECTION ( 'NONE',  ( -3.491481338843133355E-15, 1.224646799147353207E-16, -1.000000000000000000 ) ) ;
#120 = COORDINATED_UNIVERSAL_TIME_OFFSET ( 1, 0, .AHEAD. ) ;
#121 = PERSON_AND_ORGANIZATION_ROLE ( 'design_owner' ) ;
#122 = VERTEX_POINT ( 'NONE', #155 ) ;
#123 = CIRCLE ( 'NONE', #165, 2.450000000000000178 ) ;
#124 = ADVANCED_FACE ( 'NONE', ( #291 ), #297, .T. ) ;
#125 = APPROVAL_DATE_TIME ( #199, #162 ) ;
#126 = CC_DESIGN_PERSON_AND_ORGANIZATION_ASSIGNMENT ( #306, #309, ( #55 ) ) ;
#127 = PERSON_AND_ORGANIZATION_ROLE ( 'design_supplier' ) ;
#128 = EDGE_LOOP ( 'NONE', ( #267, #265, #336, #77 ) ) ;
#129 = LINE ( 'NONE', #27, #230 ) ;
#130 = DATE_AND_TIME ( #33, #327 ) ;
#131 = DIRECTION ( 'NONE',  ( -3.491481338843133355E-15, 1.224646799147353207E-16, -1.000000000000000000 ) ) ;
#132 = AXIS2_PLACEMENT_3D ( 'NONE', #148, #151, #22 ) ;
#133 = PRODUCT_DEFINITION_SHAPE ( 'NONE', 'NONE',  #256 ) ;
#134 = CARTESIAN_POINT ( 'NONE',  ( 2.199633243471174140E-13, -7.715274834628325378E-15, 63.00000000000000000 ) ) ;
#135 = DIRECTION ( 'NONE',  ( 4.891250652412045219E-31, 1.000000000000000000, 1.376764663473661394E-16 ) ) ;
#136 = LINE ( 'NONE', #12, #101 ) ;
#137 = ORIENTED_EDGE ( 'NONE', *, *, #331, .T. ) ;
#138 = CIRCLE ( 'NONE', #190, 3.149999999999995470 ) ;
#139 = LINE ( 'NONE', #17, #183 ) ;
#140 = CARTESIAN_POINT ( 'NONE',  ( 3.857637417314140009E-16, -3.149999999999992362, -3.857637417314166633E-16 ) ) ;
#141 = LINE ( 'NONE', #13, #78 ) ;
#142 = ORIENTED_EDGE ( 'NONE', *, *, #50, .F. ) ;
#143 = ADVANCED_FACE ( 'NONE', ( #210 ), #317, .T. ) ;
#144 = CIRCLE ( 'NONE', #2, 3.149999999999995470 ) ;
#145 = CARTESIAN_POINT ( 'NONE',  ( 6.608364961528495170E-15, -3.149999999999988809, 1.892710949936828202 ) ) ;
#146 = EDGE_CURVE ( 'NONE', #289, #91, #263, .T. ) ;
#147 = CALENDAR_DATE ( 2021, 2, 9 ) ;
#148 = CARTESIAN_POINT ( 'NONE',  ( 0.0000000000000000000, 0.0000000000000000000, 0.0000000000000000000 ) ) ;
#149 = COORDINATED_UNIVERSAL_TIME_OFFSET ( 1, 0, .AHEAD. ) ;
#150 = APPROVAL_PERSON_ORGANIZATION ( #203, #218, #81 ) ;
#151 = DIRECTION ( 'NONE',  ( 0.0000000000000000000, 0.0000000000000000000, 1.000000000000000000 ) ) ;
#152 = PLANE ( 'NONE',  #16 ) ;
#153 = AXIS2_PLACEMENT_3D ( 'NONE', #112, #330, #298 ) ;
#154 = APPROVAL_DATE_TIME ( #130, #218 ) ;
#155 = CARTESIAN_POINT ( 'NONE',  ( 1.136716083960541279E-13, -3.150000000000003464, 63.00000000000000000 ) ) ;
#156 = ORIENTED_EDGE ( 'NONE', *, *, #266, .T. ) ;
#157 = ADVANCED_BREP_SHAPE_REPRESENTATION ( '40067', ( #234, #232, #132 ), #220 ) ;
#158 = DIRECTION ( 'NONE',  ( -3.491481338843133355E-15, 1.224646799147353207E-16, -1.000000000000000000 ) ) ;
#159 = CLOSED_SHELL ( 'NONE', ( #143, #43, #219, #8, #29 ) ) ;
#160 = DIRECTION ( 'NONE',  ( 0.0000000000000000000, 1.000000000000000000, 0.0000000000000000000 ) ) ;
#161 = CARTESIAN_POINT ( 'NONE',  ( 2.199633243471174140E-13, 2.362121657692410679E-32, 63.00000000000000000 ) ) ;
#162 = APPROVAL ( #226, 'UNSPECIFIED' ) ;
#163 = ORIENTED_EDGE ( 'NONE', *, *, #308, .T. ) ;
#164 = LINE ( 'NONE', #114, #225 ) ;
#165 = AXIS2_PLACEMENT_3D ( 'NONE', #170, #1, #279 ) ;
#166 = ORIENTED_EDGE ( 'NONE', *, *, #173, .T. ) ;
#167 = DIRECTION ( 'NONE',  ( -3.491481338843133355E-15, 1.224646799147353207E-16, -1.000000000000000000 ) ) ;
#168 = LINE ( 'NONE', #145, #254 ) ;
#169 = FACE_OUTER_BOUND ( 'NONE', #66, .T. ) ;
#170 = CARTESIAN_POINT ( 'NONE',  ( 3.526396152231565067E-13, -1.236893267138826732E-14, 101.0000000000000000 ) ) ;
#171 = VERTEX_POINT ( 'NONE', #58 ) ;
#172 = APPLICATION_PROTOCOL_DEFINITION ( 'international standard', 'config_control_design', 1994, #185 ) ;
#173 = EDGE_CURVE ( 'NONE', #122, #293, #14, .T. ) ;
#174 = MECHANICAL_CONTEXT ( 'NONE', #185, 'mechanical' ) ;
#175 = AXIS2_PLACEMENT_3D ( 'NONE', #161, #38, #273 ) ;
#176 = PRODUCT ( '40067', '40067', '', ( #174 ) ) ;
#177 = DIRECTION ( 'NONE',  ( 4.891250652412045219E-31, 1.000000000000000000, 1.376764663473661394E-16 ) ) ;
#178 = DIRECTION ( 'NONE',  ( 0.0000000000000000000, 1.000000000000000000, 0.0000000000000000000 ) ) ;
#179 = CC_DESIGN_PERSON_AND_ORGANIZATION_ASSIGNMENT ( #18, #127, ( #258 ) ) ;
#180 = EDGE_CURVE ( 'NONE', #91, #289, #144, .T. ) ;
#181 = EDGE_LOOP ( 'NONE', ( #24, #9 ) ) ;
#182 = CARTESIAN_POINT ( 'NONE',  ( 0.0000000000000000000, 0.0000000000000000000, 0.0000000000000000000 ) ) ;
#183 = VECTOR ( 'NONE', #241, 1000.000000000000000 ) ;
#184 = CARTESIAN_POINT ( 'NONE',  ( 3.501955782859662818E-13, 3.149999999999987921, 100.2999999999999972 ) ) ;
#185 = APPLICATION_CONTEXT ( 'configuration controlled 3d designs of mechanical parts and assemblies' ) ;
#186 = DIRECTION ( 'NONE',  ( 0.0000000000000000000, 1.000000000000000000, 0.0000000000000000000 ) ) ;
#187 = PERSON ( 'UNSPECIFIED', 'UNSPECIFIED', 'UNSPECIFIED', ('UNSPECIFIED'), ('UNSPECIFIED'), ('UNSPECIFIED') ) ;
#188 = DIRECTION ( 'NONE',  ( 1.798245827342160317E-15, -0.8571673007021098911, 0.5150380749100582634 ) ) ;
#189 = AXIS2_PLACEMENT_3D ( 'NONE', #260, #106, #238 ) ;
#190 = AXIS2_PLACEMENT_3D ( 'NONE', #274, #302, #116 ) ;
#191 = CARTESIAN_POINT ( 'NONE',  ( 3.526396152231565067E-13, 2.449999999999987743, 101.0000000000000000 ) ) ;
#192 = EDGE_CURVE ( 'NONE', #321, #91, #139, .T. ) ;
#193 = ORIENTED_EDGE ( 'NONE', *, *, #84, .T. ) ;
#194 = DIRECTION ( 'NONE',  ( 0.0000000000000000000, 1.000000000000000000, 0.0000000000000000000 ) ) ;
#195 = PERSON_AND_ORGANIZATION ( #187, #69 ) ;
#196 = DESIGN_CONTEXT ( 'detailed design', #107, 'design' ) ;
#197 = AXIS2_PLACEMENT_3D ( 'NONE', #39, #301, #243 ) ;
#198 = CALENDAR_DATE ( 2021, 2, 9 ) ;
#199 = DATE_AND_TIME ( #198, #287 ) ;
#200 = VERTEX_POINT ( 'NONE', #191 ) ;
#201 = ADVANCED_FACE ( 'NONE', ( #169 ), #303, .F. ) ;
#202 = COORDINATED_UNIVERSAL_TIME_OFFSET ( 1, 0, .AHEAD. ) ;
#203 = PERSON_AND_ORGANIZATION ( #187, #69 ) ;
#204 = PRODUCT_RELATED_PRODUCT_CATEGORY ( 'detail', '', ( #176 ) ) ;
#205 = EDGE_CURVE ( 'NONE', #171, #328, #323, .T. ) ;
#206 = CYLINDRICAL_SURFACE ( 'NONE', #88, 3.149999999999997691 ) ;
#207 = ORIENTED_EDGE ( 'NONE', *, *, #93, .T. ) ;
#208 = CONICAL_SURFACE ( 'NONE', #242, 3.149999999999988365, 1.029744258676649649 ) ;
#209 = EDGE_CURVE ( 'NONE', #60, #293, #168, .T. ) ;
#210 = FACE_OUTER_BOUND ( 'NONE', #270, .T. ) ;
#211 = CARTESIAN_POINT ( 'NONE',  ( 0.0000000000000000000, 0.0000000000000000000, 0.0000000000000000000 ) ) ;
#212 = DIRECTION ( 'NONE',  ( 1.903218546456022717E-15, 0.8571673007021097801, 0.5150380749100585964 ) ) ;
#213 = ORIENTED_EDGE ( 'NONE', *, *, #93, .F. ) ;
#214 = CARTESIAN_POINT ( 'NONE',  ( 3.526396152231565067E-13, -1.236893267138826732E-14, 101.0000000000000000 ) ) ;
#215 = DIRECTION ( 'NONE',  ( 0.0000000000000000000, 1.000000000000000000, 0.0000000000000000000 ) ) ;
#216 = ORIENTED_EDGE ( 'NONE', *, *, #146, .T. ) ;
#217 = FACE_OUTER_BOUND ( 'NONE', #7, .T. ) ;
#218 = APPROVAL ( #313, 'UNSPECIFIED' ) ;
#219 = ADVANCED_FACE ( 'NONE', ( #87 ), #208, .T. ) ;
#220 =( GEOMETRIC_REPRESENTATION_CONTEXT ( 3 ) GLOBAL_UNCERTAINTY_ASSIGNED_CONTEXT ( ( #333 ) ) GLOBAL_UNIT_ASSIGNED_CONTEXT ( ( #305, #277, #257 ) ) REPRESENTATION_CONTEXT ( 'NONE', 'WORKASPACE' ) );
#221 = DIRECTION ( 'NONE',  ( -3.491481338843133355E-15, 1.224646799147353207E-16, -1.000000000000000000 ) ) ;
#222 = CLOSED_SHELL ( 'NONE', ( #318, #280, #201, #49, #124, #315 ) ) ;
#223 = FACE_OUTER_BOUND ( 'NONE', #286, .T. ) ;
#224 = DATE_AND_TIME ( #95, #264 ) ;
#225 = VECTOR ( 'NONE', #62, 1000.000000000000000 ) ;
#226 = APPROVAL_STATUS ( 'not_yet_approved' ) ;
#227 = ORIENTED_EDGE ( 'NONE', *, *, #250, .T. ) ;
#228 = APPROVAL_ROLE ( '' ) ;
#229 = DATE_AND_TIME ( #21, #90 ) ;
#230 = VECTOR ( 'NONE', #212, 999.9999999999998863 ) ;
#231 = DIRECTION ( 'NONE',  ( 3.491481338843133355E-15, -1.224646799147353207E-16, 1.000000000000000000 ) ) ;
#232 = MANIFOLD_SOLID_BREP ( 'Corps-Déplacer/Copier1[2]', #159 ) ;
#233 = DIRECTION ( 'NONE',  ( 3.491481338843133355E-15, -1.224646799147353207E-16, 1.000000000000000000 ) ) ;
#234 = MANIFOLD_SOLID_BREP ( 'Corps-Déplacer/Copier1[1]', #222 ) ;
#235 = CARTESIAN_POINT ( 'NONE',  ( 6.608364961528496748E-15, -2.317902406551283450E-16, 1.892710949936828646 ) ) ;
#236 = APPROVAL_PERSON_ORGANIZATION ( #278, #45, #228 ) ;
#237 = CIRCLE ( 'NONE', #326, 3.149999999999988365 ) ;
#238 = DIRECTION ( 'NONE',  ( 0.0000000000000000000, 1.000000000000000000, 0.0000000000000000000 ) ) ;
#239 = CARTESIAN_POINT ( 'NONE',  ( 0.0000000000000000000, 0.0000000000000000000, 0.0000000000000000000 ) ) ;
#240 = ORIENTED_EDGE ( 'NONE', *, *, #192, .F. ) ;
#241 = DIRECTION ( 'NONE',  ( -3.491481338843133355E-15, 1.224646799147353207E-16, -1.000000000000000000 ) ) ;
#242 = AXIS2_PLACEMENT_3D ( 'NONE', #244, #268, #89 ) ;
#243 = DIRECTION ( 'NONE',  ( 0.0000000000000000000, 1.000000000000000000, 0.0000000000000000000 ) ) ;
#244 = CARTESIAN_POINT ( 'NONE',  ( 6.608364961528496748E-15, -2.317902406551283450E-16, 1.892710949936828646 ) ) ;
#245 = CC_DESIGN_PERSON_AND_ORGANIZATION_ASSIGNMENT ( #283, #334, ( #258 ) ) ;
#246 = DIRECTION ( 'NONE',  ( -3.491481338843133355E-15, 1.224646799147353207E-16, -1.000000000000000000 ) ) ;
#247 = EDGE_CURVE ( 'NONE', #200, #321, #141, .T. ) ;
#248 = CARTESIAN_POINT ( 'NONE',  ( 3.517604978583226578E-13, -2.450000000000013056, 101.0000000000000000 ) ) ;
#249 = AXIS2_PLACEMENT_3D ( 'NONE', #52, #10, #178 ) ;
#250 = EDGE_CURVE ( 'NONE', #122, #171, #138, .T. ) ;
#251 = DATE_TIME_ROLE ( 'creation_date' ) ;
#252 = EDGE_CURVE ( 'NONE', #171, #122, #282, .T. ) ;
#253 = PERSON_AND_ORGANIZATION ( #187, #69 ) ;
#254 = VECTOR ( 'NONE', #188, 1000.000000000000000 ) ;
#255 = COORDINATED_UNIVERSAL_TIME_OFFSET ( 1, 0, .AHEAD. ) ;
#256 = PRODUCT_DEFINITION ( 'UNKNOWN', '', #258, #196 ) ;
#257 =( NAMED_UNIT ( * ) SI_UNIT ( $, .STERADIAN. ) SOLID_ANGLE_UNIT ( ) );
#258 = PRODUCT_DEFINITION_FORMATION_WITH_SPECIFIED_SOURCE ( 'ANY', '', #176, .NOT_KNOWN. ) ;
#259 = DIRECTION ( 'NONE',  ( -3.491481338843133355E-15, 1.224646799147353207E-16, -1.000000000000000000 ) ) ;
#260 = CARTESIAN_POINT ( 'NONE',  ( 3.526396152231565067E-13, -1.236893267138826732E-14, 101.0000000000000000 ) ) ;
#261 = DIRECTION ( 'NONE',  ( 4.275831445896958607E-31, 1.000000000000000000, 1.224646799147352961E-16 ) ) ;
#262 = DIRECTION ( 'NONE',  ( 4.275831445896958607E-31, 1.000000000000000000, 1.224646799147352961E-16 ) ) ;
#263 = CIRCLE ( 'NONE', #115, 3.149999999999995470 ) ;
#264 = LOCAL_TIME ( 15, 22, 15.00000000000000000, #202 ) ;
#265 = ORIENTED_EDGE ( 'NONE', *, *, #322, .T. ) ;
#266 = EDGE_CURVE ( 'NONE', #276, #53, #164, .T. ) ;
#267 = ORIENTED_EDGE ( 'NONE', *, *, #308, .F. ) ;
#268 = DIRECTION ( 'NONE',  ( 3.491481338843133355E-15, -1.224646799147353207E-16, 1.000000000000000000 ) ) ;
#269 = DIRECTION ( 'NONE',  ( 0.0000000000000000000, 1.000000000000000000, 0.0000000000000000000 ) ) ;
#270 = EDGE_LOOP ( 'NONE', ( #3, #166, #142, #25 ) ) ;
#271 = AXIS2_PLACEMENT_3D ( 'NONE', #214, #86, #194 ) ;
#272 = CC_DESIGN_PERSON_AND_ORGANIZATION_ASSIGNMENT ( #20, #335, ( #256 ) ) ;
#273 = DIRECTION ( 'NONE',  ( -4.275831445896958607E-31, -1.000000000000000000, -1.224646799147353207E-16 ) ) ;
#274 = CARTESIAN_POINT ( 'NONE',  ( 2.199633243471174140E-13, -7.715274834628325378E-15, 63.00000000000000000 ) ) ;
#275 = DIRECTION ( 'NONE',  ( -3.491481338843133355E-15, 1.224646799147353207E-16, -1.000000000000000000 ) ) ;
#276 = VERTEX_POINT ( 'NONE', #248 ) ;
#277 =( NAMED_UNIT ( * ) PLANE_ANGLE_UNIT ( ) SI_UNIT ( $, .RADIAN. ) );
#278 = PERSON_AND_ORGANIZATION ( #187, #69 ) ;
#279 = DIRECTION ( 'NONE',  ( 0.0000000000000000000, 1.000000000000000000, 0.0000000000000000000 ) ) ;
#280 = ADVANCED_FACE ( 'NONE', ( #41 ), #113, .T. ) ;
#281 = CIRCLE ( 'NONE', #73, 3.149999999999988365 ) ;
#282 = CIRCLE ( 'NONE', #197, 3.149999999999995470 ) ;
#283 = PERSON_AND_ORGANIZATION ( #187, #69 ) ;
#284 = CIRCLE ( 'NONE', #249, 2.450000000000000178 ) ;
#285 = CARTESIAN_POINT ( 'NONE',  ( 3.501955782859662818E-13, -1.228320739544795303E-14, 100.2999999999999972 ) ) ;
#286 = EDGE_LOOP ( 'NONE', ( #207, #156, #329, #47 ) ) ;
#287 = LOCAL_TIME ( 15, 22, 15.00000000000000000, #149 ) ;
#288 = CARTESIAN_POINT ( 'NONE',  ( 6.608364961528496748E-15, -2.317902406551283450E-16, 1.892710949936828646 ) ) ;
#289 = VERTEX_POINT ( 'NONE', #65 ) ;
#290 = SHAPE_DEFINITION_REPRESENTATION ( #133, #157 ) ;
#291 = FACE_OUTER_BOUND ( 'NONE', #26, .T. ) ;
#292 = CARTESIAN_POINT ( 'NONE',  ( 0.0000000000000000000, 0.0000000000000000000, 0.0000000000000000000 ) ) ;
#293 = VERTEX_POINT ( 'NONE', #67 ) ;
#294 = DIRECTION ( 'NONE',  ( -3.491481338843133355E-15, 1.224646799147353207E-16, -1.000000000000000000 ) ) ;
#295 = AXIS2_PLACEMENT_3D ( 'NONE', #239, #259, #261 ) ;
#296 = AXIS2_PLACEMENT_3D ( 'NONE', #42, #221, #92 ) ;
#297 = CONICAL_SURFACE ( 'NONE', #189, 2.450000000000000178, 0.7853981633974437271 ) ;
#298 = DIRECTION ( 'NONE',  ( 4.275831445896958607E-31, 1.000000000000000000, 1.224646799147353207E-16 ) ) ;
#299 = ORIENTED_EDGE ( 'NONE', *, *, #180, .T. ) ;
#300 = CARTESIAN_POINT ( 'NONE',  ( 1.346886905457538572E-30, 3.149999999999992362, 3.857637417314152828E-16 ) ) ;
#301 = DIRECTION ( 'NONE',  ( -3.491481338843133355E-15, 1.224646799147353207E-16, -1.000000000000000000 ) ) ;
#302 = DIRECTION ( 'NONE',  ( -3.491481338843133355E-15, 1.224646799147353207E-16, -1.000000000000000000 ) ) ;
#303 = PLANE ( 'NONE',  #175 ) ;
#304 = CC_DESIGN_APPROVAL ( #218, ( #55 ) ) ;
#305 =( LENGTH_UNIT ( ) NAMED_UNIT ( * ) SI_UNIT ( .MILLI., .METRE. ) );
#306 = PERSON_AND_ORGANIZATION ( #187, #69 ) ;
#307 = ORIENTED_EDGE ( 'NONE', *, *, #247, .T. ) ;
#308 = EDGE_CURVE ( 'NONE', #53, #289, #136, .T. ) ;
#309 = PERSON_AND_ORGANIZATION_ROLE ( 'classification_officer' ) ;
#310 = ORIENTED_EDGE ( 'NONE', *, *, #173, .F. ) ;
#311 = VECTOR ( 'NONE', #332, 1000.000000000000000 ) ;
#312 = AXIS2_PLACEMENT_3D ( 'NONE', #61, #275, #186 ) ;
#313 = APPROVAL_STATUS ( 'not_yet_approved' ) ;
#314 = CYLINDRICAL_SURFACE ( 'NONE', #295, 3.149999999999992362 ) ;
#315 = ADVANCED_FACE ( 'NONE', ( #217 ), #325, .F. ) ;
#316 = ORIENTED_EDGE ( 'NONE', *, *, #23, .T. ) ;
#317 = CYLINDRICAL_SURFACE ( 'NONE', #32, 3.149999999999992362 ) ;
#318 = ADVANCED_FACE ( 'NONE', ( #223 ), #48, .T. ) ;
#319 = DIRECTION ( 'NONE',  ( -4.275831445896958607E-31, -1.000000000000000000, -1.224646799147353207E-16 ) ) ;
#320 = FACE_OUTER_BOUND ( 'NONE', #128, .T. ) ;
#321 = VERTEX_POINT ( 'NONE', #184 ) ;
#322 = EDGE_CURVE ( 'NONE', #53, #321, #105, .T. ) ;
#323 = LINE ( 'NONE', #300, #6 ) ;
#324 = DIRECTION ( 'NONE',  ( -3.491481338843133355E-15, 1.224646799147353207E-16, -1.000000000000000000 ) ) ;
#325 = PLANE ( 'NONE',  #296 ) ;
#326 = AXIS2_PLACEMENT_3D ( 'NONE', #235, #158, #135 ) ;
#327 = LOCAL_TIME ( 15, 22, 15.00000000000000000, #75 ) ;
#328 = VERTEX_POINT ( 'NONE', #74 ) ;
#329 = ORIENTED_EDGE ( 'NONE', *, *, #97, .F. ) ;
#330 = DIRECTION ( 'NONE',  ( -3.491481338843133355E-15, 1.224646799147353207E-16, -1.000000000000000000 ) ) ;
#331 = EDGE_CURVE ( 'NONE', #276, #200, #123, .T. ) ;
#332 = DIRECTION ( 'NONE',  ( -3.491481338843133355E-15, 1.224646799147353207E-16, -1.000000000000000000 ) ) ;
#333 = UNCERTAINTY_MEASURE_WITH_UNIT (LENGTH_MEASURE( 1.000000000000000082E-05 ), #305, 'distance_accuracy_value', 'NONE');
#334 = PERSON_AND_ORGANIZATION_ROLE ( 'creator' ) ;
#335 = PERSON_AND_ORGANIZATION_ROLE ( 'creator' ) ;
#336 = ORIENTED_EDGE ( 'NONE', *, *, #192, .T. ) ;
#337 = APPROVAL_STATUS ( 'not_yet_approved' ) ;
ENDSEC;
END-ISO-10303-21;
