ISO-10303-21;
HEADER;
FILE_DESCRIPTION (( 'STEP AP203' ),
    '1' );
FILE_NAME ('40063.step',
    '2021-09-02T13:22:12',
    ( '' ),
    ( '' ),
    'SwSTEP 2.0',
    'SolidWorks 2019',
    '' );
FILE_SCHEMA (( 'CONFIG_CONTROL_DESIGN' ));
ENDSEC;

DATA;
#1 = CARTESIAN_POINT ( 'NONE',  ( 2.401892993802972869E-13, -2.650000000000002576, 52.00000000000000000 ) ) ;
#2 = APPROVAL ( #283, 'UNSPECIFIED' ) ;
#3 = EDGE_CURVE ( 'NONE', #309, #103, #40, .T. ) ;
#4 = CARTESIAN_POINT ( 'NONE',  ( 5.559418142238258969E-15, -1.949981389638381065E-16, 1.592280640423046068 ) ) ;
#5 = VERTEX_POINT ( 'NONE', #200 ) ;
#6 = CONICAL_SURFACE ( 'NONE', #146, 2.649999999999989697, 1.029744258676649649 ) ;
#7 = PRODUCT_DEFINITION ( 'UNKNOWN', '', #256, #297 ) ;
#8 = ORIENTED_EDGE ( 'NONE', *, *, #3, .F. ) ;
#9 = DIRECTION ( 'NONE',  ( 0.0000000000000000000, 1.000000000000000000, 0.0000000000000000000 ) ) ;
#10 = AXIS2_PLACEMENT_3D ( 'NONE', #259, #21, #18 ) ;
#11 = EDGE_CURVE ( 'NONE', #77, #247, #14, .T. ) ;
#12 = DIRECTION ( 'NONE',  ( 3.491481338843133355E-15, -1.224646799147353207E-16, 1.000000000000000000 ) ) ;
#13 = FACE_OUTER_BOUND ( 'NONE', #183, .T. ) ;
#14 = CIRCLE ( 'NONE', #226, 2.649999999999999911 ) ;
#15 = VECTOR ( 'NONE', #275, 1000.000000000000000 ) ;
#16 = EDGE_CURVE ( 'NONE', #332, #247, #324, .T. ) ;
#17 = PERSON_AND_ORGANIZATION_ROLE ( 'design_supplier' ) ;
#18 = DIRECTION ( 'NONE',  ( 0.0000000000000000000, 1.000000000000000000, 0.0000000000000000000 ) ) ;
#19 = EDGE_LOOP ( 'NONE', ( #250, #174, #91, #22 ) ) ;
#20 = DATE_AND_TIME ( #150, #92 ) ;
#21 = DIRECTION ( 'NONE',  ( -3.491481338843133355E-15, 1.224646799147353207E-16, -1.000000000000000000 ) ) ;
#22 = ORIENTED_EDGE ( 'NONE', *, *, #178, .F. ) ;
#23 = DIRECTION ( 'NONE',  ( 4.275831445896958607E-31, 1.000000000000000000, 1.224646799147352961E-16 ) ) ;
#24 = AXIS2_PLACEMENT_3D ( 'NONE', #104, #262, #280 ) ;
#25 = APPROVAL_ROLE ( '' ) ;
#26 = CARTESIAN_POINT ( 'NONE',  ( 0.0000000000000000000, 0.0000000000000000000, 0.0000000000000000000 ) ) ;
#27 = PERSON_AND_ORGANIZATION ( #51, #116 ) ;
#28 = CARTESIAN_POINT ( 'NONE',  ( 3.002673951405094433E-13, -1.053196247266723694E-14, 86.00000000000000000 ) ) ;
#29 = CALENDAR_DATE ( 2021, 2, 9 ) ;
#30 = CIRCLE ( 'NONE', #79, 2.050000000000000266 ) ;
#31 = CARTESIAN_POINT ( 'NONE',  ( 1.133095333162693181E-30, 2.649999999999997691, 3.245314017740483497E-16 ) ) ;
#32 = ORIENTED_EDGE ( 'NONE', *, *, #176, .F. ) ;
#33 = CARTESIAN_POINT ( 'NONE',  ( 5.559418142238258180E-15, -2.649999999999989697, 1.592280640423045845 ) ) ;
#34 = PRODUCT_DEFINITION_SHAPE ( 'NONE', 'NONE',  #7 ) ;
#35 = ORIENTED_EDGE ( 'NONE', *, *, #141, .F. ) ;
#36 = AXIS2_PLACEMENT_3D ( 'NONE', #164, #312, #290 ) ;
#37 = APPLICATION_CONTEXT ( 'configuration controlled 3d designs of mechanical parts and assemblies' ) ;
#38 = AXIS2_PLACEMENT_3D ( 'NONE', #82, #291, #50 ) ;
#39 = EDGE_CURVE ( 'NONE', #172, #5, #112, .T. ) ;
#40 = LINE ( 'NONE', #252, #93 ) ;
#41 = CARTESIAN_POINT ( 'NONE',  ( 0.0000000000000000000, 0.0000000000000000000, 0.0000000000000000000 ) ) ;
#42 = CYLINDRICAL_SURFACE ( 'NONE', #218, 2.649999999999997691 ) ;
#43 = FACE_OUTER_BOUND ( 'NONE', #220, .T. ) ;
#44 = ORIENTED_EDGE ( 'NONE', *, *, #241, .T. ) ;
#45 = PERSON_AND_ORGANIZATION_ROLE ( 'design_owner' ) ;
#46 = DIRECTION ( 'NONE',  ( -2.382254525458723780E-15, -0.7071067811865453523, -0.7071067811865496822 ) ) ;
#47 = ORIENTED_EDGE ( 'NONE', *, *, #241, .F. ) ;
#48 = DIRECTION ( 'NONE',  ( 0.0000000000000000000, 1.000000000000000000, 0.0000000000000000000 ) ) ;
#49 = DIRECTION ( 'NONE',  ( 2.907064066999612739E-31, 1.000000000000000000, 8.182657905551009094E-17 ) ) ;
#50 = DIRECTION ( 'NONE',  ( 1.000000000000000000, 0.0000000000000000000, 0.0000000000000000000 ) ) ;
#51 = PERSON ( 'UNSPECIFIED', 'UNSPECIFIED', 'UNSPECIFIED', ('UNSPECIFIED'), ('UNSPECIFIED'), ('UNSPECIFIED') ) ;
#52 = MANIFOLD_SOLID_BREP ( 'Corps-Déplacer/Copier1[2]', #334 ) ;
#53 = CARTESIAN_POINT ( 'NONE',  ( 2.995077427366561031E-13, -2.050000000000010481, 86.00000000000000000 ) ) ;
#54 = AXIS2_PLACEMENT_3D ( 'NONE', #313, #56, #219 ) ;
#55 = APPROVAL_DATE_TIME ( #308, #243 ) ;
#56 = DIRECTION ( 'NONE',  ( -3.491481338843133355E-15, 1.224646799147353207E-16, -1.000000000000000000 ) ) ;
#57 = ADVANCED_FACE ( 'NONE', ( #238 ), #298, .T. ) ;
#58 = PRODUCT ( '40063', '40063', '', ( #269 ) ) ;
#59 = LINE ( 'NONE', #242, #96 ) ;
#60 = EDGE_LOOP ( 'NONE', ( #118, #264, #276, #260 ) ) ;
#61 = FACE_OUTER_BOUND ( 'NONE', #274, .T. ) ;
#62 = APPROVAL_PERSON_ORGANIZATION ( #289, #151, #25 ) ;
#63 = CC_DESIGN_APPROVAL ( #2, ( #7 ) ) ;
#64 = CIRCLE ( 'NONE', #36, 2.050000000000000266 ) ;
#65 = CC_DESIGN_PERSON_AND_ORGANIZATION_ASSIGNMENT ( #233, #76, ( #256 ) ) ;
#66 = ADVANCED_BREP_SHAPE_REPRESENTATION ( '40063', ( #165, #52, #38 ), #286 ) ;
#67 = ADVANCED_FACE ( 'NONE', ( #139 ), #273, .T. ) ;
#68 = ORIENTED_EDGE ( 'NONE', *, *, #299, .F. ) ;
#69 = CIRCLE ( 'NONE', #10, 2.649999999999995914 ) ;
#70 = CARTESIAN_POINT ( 'NONE',  ( 2.981725063372035507E-13, -1.045848366471839522E-14, 85.39999999999999147 ) ) ;
#71 = CC_DESIGN_PERSON_AND_ORGANIZATION_ASSIGNMENT ( #27, #45, ( #58 ) ) ;
#72 = DIRECTION ( 'NONE',  ( 3.491481338843133355E-15, -1.224646799147353207E-16, 1.000000000000000000 ) ) ;
#73 = VERTEX_POINT ( 'NONE', #89 ) ;
#74 = CC_DESIGN_APPROVAL ( #243, ( #256 ) ) ;
#75 = CARTESIAN_POINT ( 'NONE',  ( 5.559418142238258969E-15, -1.949981389638381065E-16, 1.592280640423046068 ) ) ;
#76 = PERSON_AND_ORGANIZATION_ROLE ( 'creator' ) ;
#77 = VERTEX_POINT ( 'NONE', #83 ) ;
#78 = DIRECTION ( 'NONE',  ( 2.907064066999612739E-31, 1.000000000000000000, 8.182657905551009094E-17 ) ) ;
#79 = AXIS2_PLACEMENT_3D ( 'NONE', #175, #225, #182 ) ;
#80 = DIRECTION ( 'NONE',  ( -3.491481338843133355E-15, 1.224646799147353207E-16, -1.000000000000000000 ) ) ;
#81 = ADVANCED_FACE ( 'NONE', ( #187 ), #88, .T. ) ;
#82 = CARTESIAN_POINT ( 'NONE',  ( 0.0000000000000000000, 0.0000000000000000000, 0.0000000000000000000 ) ) ;
#83 = CARTESIAN_POINT ( 'NONE',  ( 2.401892993802971860E-13, -2.650000000000010569, 85.39999999999999147 ) ) ;
#84 = CC_DESIGN_PERSON_AND_ORGANIZATION_ASSIGNMENT ( #100, #306, ( #215 ) ) ;
#85 = AXIS2_PLACEMENT_3D ( 'NONE', #4, #254, #49 ) ;
#86 = APPROVAL_DATE_TIME ( #133, #151 ) ;
#87 = CARTESIAN_POINT ( 'NONE',  ( 5.883949544012307269E-15, 2.649999999999989697, 1.592280640423046290 ) ) ;
#88 = CONICAL_SURFACE ( 'NONE', #54, 2.050000000000000266, 0.7853981633974453924 ) ;
#89 = CARTESIAN_POINT ( 'NONE',  ( 9.388275528281442454E-14, -2.650000000000002576, 52.00000000000000000 ) ) ;
#90 = EDGE_LOOP ( 'NONE', ( #115, #320, #221, #209 ) ) ;
#91 = ORIENTED_EDGE ( 'NONE', *, *, #117, .T. ) ;
#92 = LOCAL_TIME ( 15, 22, 12.00000000000000000, #154 ) ;
#93 = VECTOR ( 'NONE', #147, 999.9999999999998863 ) ;
#94 = EDGE_LOOP ( 'NONE', ( #8, #44, #295 ) ) ;
#95 = DIRECTION ( 'NONE',  ( -2.468850131082271655E-15, 0.7071067811865455743, -0.7071067811865493491 ) ) ;
#96 = VECTOR ( 'NONE', #80, 1000.000000000000000 ) ;
#97 = PLANE ( 'NONE',  #121 ) ;
#98 = DIRECTION ( 'NONE',  ( 0.0000000000000000000, 1.000000000000000000, 0.0000000000000000000 ) ) ;
#99 = ORIENTED_EDGE ( 'NONE', *, *, #3, .T. ) ;
#100 = PERSON_AND_ORGANIZATION ( #51, #116 ) ;
#101 = CARTESIAN_POINT ( 'NONE',  ( 2.981725063372035507E-13, -1.045848366471839522E-14, 85.39999999999999147 ) ) ;
#102 = APPROVAL_STATUS ( 'not_yet_approved' ) ;
#103 = VERTEX_POINT ( 'NONE', #87 ) ;
#104 = CARTESIAN_POINT ( 'NONE',  ( 1.815570296198429345E-13, -6.368163355566236381E-15, 52.00000000000000000 ) ) ;
#105 = APPROVAL_ROLE ( '' ) ;
#106 = DIRECTION ( 'NONE',  ( -3.491481338843133355E-15, 1.224646799147353207E-16, -1.000000000000000000 ) ) ;
#107 = ADVANCED_FACE ( 'NONE', ( #61 ), #6, .T. ) ;
#108 = PERSON_AND_ORGANIZATION ( #51, #116 ) ;
#109 = DIRECTION ( 'NONE',  ( -3.491481338843133355E-15, 1.224646799147353207E-16, -1.000000000000000000 ) ) ;
#110 = ADVANCED_FACE ( 'NONE', ( #188 ), #296, .T. ) ;
#111 = CC_DESIGN_SECURITY_CLASSIFICATION ( #215, ( #256 ) ) ;
#112 = CIRCLE ( 'NONE', #245, 2.649999999999995914 ) ;
#113 = DIRECTION ( 'NONE',  ( 0.0000000000000000000, 1.000000000000000000, 0.0000000000000000000 ) ) ;
#114 = DIRECTION ( 'NONE',  ( -3.491481338843133355E-15, 1.224646799147353207E-16, -1.000000000000000000 ) ) ;
#115 = ORIENTED_EDGE ( 'NONE', *, *, #244, .F. ) ;
#116 = ORGANIZATION ( 'UNSPECIFIED', 'UNSPECIFIED', '' ) ;
#117 = EDGE_CURVE ( 'NONE', #234, #103, #132, .T. ) ;
#118 = ORIENTED_EDGE ( 'NONE', *, *, #141, .T. ) ;
#119 = DIRECTION ( 'NONE',  ( -3.491481338843133355E-15, 1.224646799147353207E-16, -1.000000000000000000 ) ) ;
#120 = CARTESIAN_POINT ( 'NONE',  ( 3.245314017740472650E-16, -2.649999999999997691, -3.245314017740494837E-16 ) ) ;
#121 = AXIS2_PLACEMENT_3D ( 'NONE', #128, #327, #236 ) ;
#122 = CARTESIAN_POINT ( 'NONE',  ( 5.559418142238258180E-15, -2.649999999999989697, 1.592280640423045845 ) ) ;
#123 = APPROVAL_ROLE ( '' ) ;
#124 = LINE ( 'NONE', #120, #134 ) ;
#125 = CC_DESIGN_PERSON_AND_ORGANIZATION_ASSIGNMENT ( #257, #160, ( #7 ) ) ;
#126 = EDGE_LOOP ( 'NONE', ( #232, #131, #68, #323 ) ) ;
#127 = COORDINATED_UNIVERSAL_TIME_OFFSET ( 1, 0, .AHEAD. ) ;
#128 = CARTESIAN_POINT ( 'NONE',  ( 3.002673951405094433E-13, 1.537253777228388448E-32, 86.00000000000000000 ) ) ;
#129 = CALENDAR_DATE ( 2021, 2, 9 ) ;
#130 = ADVANCED_FACE ( 'NONE', ( #214 ), #171, .T. ) ;
#131 = ORIENTED_EDGE ( 'NONE', *, *, #143, .T. ) ;
#132 = LINE ( 'NONE', #240, #15 ) ;
#133 = DATE_AND_TIME ( #29, #255 ) ;
#134 = VECTOR ( 'NONE', #307, 1000.000000000000000 ) ;
#135 = CARTESIAN_POINT ( 'NONE',  ( 1.815570296198429345E-13, -6.368163355566236381E-15, 52.00000000000000000 ) ) ;
#136 = ADVANCED_FACE ( 'NONE', ( #294 ), #212, .T. ) ;
#137 = APPLICATION_PROTOCOL_DEFINITION ( 'international standard', 'config_control_design', 1994, #37 ) ;
#138 = DIRECTION ( 'NONE',  ( 4.275831445896958607E-31, 1.000000000000000000, 1.224646799147352961E-16 ) ) ;
#139 = FACE_OUTER_BOUND ( 'NONE', #19, .T. ) ;
#140 = VERTEX_POINT ( 'NONE', #33 ) ;
#141 = EDGE_CURVE ( 'NONE', #332, #157, #64, .T. ) ;
#142 = VECTOR ( 'NONE', #229, 1000.000000000000000 ) ;
#143 = EDGE_CURVE ( 'NONE', #73, #140, #59, .T. ) ;
#144 = ORIENTED_EDGE ( 'NONE', *, *, #227, .F. ) ;
#145 = ORIENTED_EDGE ( 'NONE', *, *, #169, .T. ) ;
#146 = AXIS2_PLACEMENT_3D ( 'NONE', #336, #217, #168 ) ;
#147 = DIRECTION ( 'NONE',  ( 1.903218546456022717E-15, 0.8571673007021097801, 0.5150380749100585964 ) ) ;
#148 = LINE ( 'NONE', #155, #292 ) ;
#149 =( NAMED_UNIT ( * ) PLANE_ANGLE_UNIT ( ) SI_UNIT ( $, .RADIAN. ) );
#150 = CALENDAR_DATE ( 2021, 2, 9 ) ;
#151 = APPROVAL ( #266, 'UNSPECIFIED' ) ;
#152 = DIRECTION ( 'NONE',  ( 4.275831445896959482E-31, 1.000000000000000000, 1.224646799147353207E-16 ) ) ;
#153 = EDGE_LOOP ( 'NONE', ( #35, #278 ) ) ;
#154 = COORDINATED_UNIVERSAL_TIME_OFFSET ( 1, 0, .AHEAD. ) ;
#155 = CARTESIAN_POINT ( 'NONE',  ( 3.005184477343346617E-13, -2.050000000000010481, 86.00000000000000000 ) ) ;
#156 = APPROVAL_DATE_TIME ( #20, #2 ) ;
#157 = VERTEX_POINT ( 'NONE', #53 ) ;
#158 = CARTESIAN_POINT ( 'NONE',  ( 0.0000000000000000000, 0.0000000000000000000, 0.0000000000000000000 ) ) ;
#159 = DIRECTION ( 'NONE',  ( -3.491481338843133355E-15, 1.224646799147353207E-16, -1.000000000000000000 ) ) ;
#160 = PERSON_AND_ORGANIZATION_ROLE ( 'creator' ) ;
#161 = CARTESIAN_POINT ( 'NONE',  ( 0.0000000000000000000, 0.0000000000000000000, 0.0000000000000000000 ) ) ;
#162 = AXIS2_PLACEMENT_3D ( 'NONE', #26, #106, #23 ) ;
#163 =( NAMED_UNIT ( * ) SI_UNIT ( $, .STERADIAN. ) SOLID_ANGLE_UNIT ( ) );
#164 = CARTESIAN_POINT ( 'NONE',  ( 3.002673951405094433E-13, -1.053196247266723694E-14, 86.00000000000000000 ) ) ;
#165 = MANIFOLD_SOLID_BREP ( 'Corps-Déplacer/Copier1[1]', #189 ) ;
#166 = LINE ( 'NONE', #31, #228 ) ;
#167 = ORIENTED_EDGE ( 'NONE', *, *, #176, .T. ) ;
#168 = DIRECTION ( 'NONE',  ( -2.907064066999612739E-31, -1.000000000000000000, -8.182657905551009094E-17 ) ) ;
#169 = EDGE_CURVE ( 'NONE', #5, #172, #201, .T. ) ;
#170 = LOCAL_TIME ( 15, 22, 12.00000000000000000, #335 ) ;
#171 = CONICAL_SURFACE ( 'NONE', #277, 2.050000000000000266, 0.7853981633974453924 ) ;
#172 = VERTEX_POINT ( 'NONE', #1 ) ;
#173 = CIRCLE ( 'NONE', #24, 2.649999999999995914 ) ;
#174 = ORIENTED_EDGE ( 'NONE', *, *, #267, .T. ) ;
#175 = CARTESIAN_POINT ( 'NONE',  ( 3.002673951405094433E-13, -1.053196247266723694E-14, 86.00000000000000000 ) ) ;
#176 = EDGE_CURVE ( 'NONE', #247, #5, #166, .T. ) ;
#177 = DIRECTION ( 'NONE',  ( -4.275831445896958607E-31, -1.000000000000000000, -1.224646799147353207E-16 ) ) ;
#178 = EDGE_CURVE ( 'NONE', #140, #103, #258, .T. ) ;
#179 = ORIENTED_EDGE ( 'NONE', *, *, #169, .F. ) ;
#180 = APPLICATION_PROTOCOL_DEFINITION ( 'international standard', 'config_control_design', 1994, #271 ) ;
#181 = LOCAL_TIME ( 15, 22, 12.00000000000000000, #331 ) ;
#182 = DIRECTION ( 'NONE',  ( 0.0000000000000000000, 1.000000000000000000, 0.0000000000000000000 ) ) ;
#183 = EDGE_LOOP ( 'NONE', ( #145, #301 ) ) ;
#184 = FACE_OUTER_BOUND ( 'NONE', #153, .T. ) ;
#185 = CIRCLE ( 'NONE', #222, 2.649999999999989697 ) ;
#186 = DATE_TIME_ROLE ( 'classification_date' ) ;
#187 = FACE_OUTER_BOUND ( 'NONE', #60, .T. ) ;
#188 = FACE_OUTER_BOUND ( 'NONE', #194, .T. ) ;
#189 = CLOSED_SHELL ( 'NONE', ( #81, #110, #223, #251, #130, #195 ) ) ;
#190 = AXIS2_PLACEMENT_3D ( 'NONE', #135, #109, #270 ) ;
#191 = VECTOR ( 'NONE', #95, 1000.000000000000114 ) ;
#192 = DIRECTION ( 'NONE',  ( -3.491481338843133355E-15, 1.224646799147353207E-16, -1.000000000000000000 ) ) ;
#193 = DIRECTION ( 'NONE',  ( -3.491481338843133355E-15, 1.224646799147353207E-16, -1.000000000000000000 ) ) ;
#194 = EDGE_LOOP ( 'NONE', ( #285, #305, #179, #32 ) ) ;
#195 = ADVANCED_FACE ( 'NONE', ( #184 ), #97, .F. ) ;
#196 = CC_DESIGN_APPROVAL ( #151, ( #215 ) ) ;
#197 = AXIS2_PLACEMENT_3D ( 'NONE', #265, #268, #293 ) ;
#198 = UNCERTAINTY_MEASURE_WITH_UNIT (LENGTH_MEASURE( 1.000000000000000082E-05 ), #310, 'distance_accuracy_value', 'NONE');
#199 = EDGE_LOOP ( 'NONE', ( #282, #206 ) ) ;
#200 = CARTESIAN_POINT ( 'NONE',  ( 1.815570296198429345E-13, 2.649999999999989697, 52.00000000000000000 ) ) ;
#201 = CIRCLE ( 'NONE', #190, 2.649999999999995914 ) ;
#202 = DIRECTION ( 'NONE',  ( -3.491481338843133355E-15, 1.224646799147353207E-16, -1.000000000000000000 ) ) ;
#203 = CC_DESIGN_PERSON_AND_ORGANIZATION_ASSIGNMENT ( #230, #17, ( #256 ) ) ;
#204 = EDGE_CURVE ( 'NONE', #247, #77, #237, .T. ) ;
#205 = CARTESIAN_POINT ( 'NONE',  ( 1.815570296198429345E-13, 1.987181712026948741E-32, 52.00000000000000000 ) ) ;
#206 = ORIENTED_EDGE ( 'NONE', *, *, #267, .F. ) ;
#207 = DATE_TIME_ROLE ( 'creation_date' ) ;
#208 = LINE ( 'NONE', #122, #142 ) ;
#209 = ORIENTED_EDGE ( 'NONE', *, *, #11, .F. ) ;
#210 = DIRECTION ( 'NONE',  ( -4.275831445896958607E-31, -1.000000000000000000, -1.224646799147353207E-16 ) ) ;
#211 = DATE_AND_TIME ( #311, #181 ) ;
#212 = CYLINDRICAL_SURFACE ( 'NONE', #162, 2.649999999999992806 ) ;
#213 = CALENDAR_DATE ( 2021, 2, 9 ) ;
#214 = FACE_OUTER_BOUND ( 'NONE', #90, .T. ) ;
#215 = SECURITY_CLASSIFICATION ( '', '', #330 ) ;
#216 = AXIS2_PLACEMENT_3D ( 'NONE', #161, #246, #138 ) ;
#217 = DIRECTION ( 'NONE',  ( 3.491481338843133355E-15, -1.224646799147353207E-16, 1.000000000000000000 ) ) ;
#218 = AXIS2_PLACEMENT_3D ( 'NONE', #231, #159, #152 ) ;
#219 = DIRECTION ( 'NONE',  ( 0.0000000000000000000, 1.000000000000000000, 0.0000000000000000000 ) ) ;
#220 = EDGE_LOOP ( 'NONE', ( #144, #302, #167, #329 ) ) ;
#221 = ORIENTED_EDGE ( 'NONE', *, *, #16, .T. ) ;
#222 = AXIS2_PLACEMENT_3D ( 'NONE', #75, #202, #78 ) ;
#223 = ADVANCED_FACE ( 'NONE', ( #13 ), #304, .F. ) ;
#224 = CARTESIAN_POINT ( 'NONE',  ( 3.002673951405094433E-13, 2.049999999999989608, 86.00000000000000000 ) ) ;
#225 = DIRECTION ( 'NONE',  ( -3.491481338843133355E-15, 1.224646799147353207E-16, -1.000000000000000000 ) ) ;
#226 = AXIS2_PLACEMENT_3D ( 'NONE', #70, #119, #9 ) ;
#227 = EDGE_CURVE ( 'NONE', #77, #172, #124, .T. ) ;
#228 = VECTOR ( 'NONE', #114, 1000.000000000000000 ) ;
#229 = DIRECTION ( 'NONE',  ( 1.798245827342160317E-15, -0.8571673007021098911, 0.5150380749100582634 ) ) ;
#230 = PERSON_AND_ORGANIZATION ( #51, #116 ) ;
#231 = CARTESIAN_POINT ( 'NONE',  ( 0.0000000000000000000, 0.0000000000000000000, 0.0000000000000000000 ) ) ;
#232 = ORIENTED_EDGE ( 'NONE', *, *, #288, .T. ) ;
#233 = PERSON_AND_ORGANIZATION ( #51, #116 ) ;
#234 = VERTEX_POINT ( 'NONE', #281 ) ;
#235 = PRODUCT_RELATED_PRODUCT_CATEGORY ( 'detail', '', ( #58 ) ) ;
#236 = DIRECTION ( 'NONE',  ( 4.275831445896958607E-31, 1.000000000000000000, 1.224646799147353207E-16 ) ) ;
#237 = CIRCLE ( 'NONE', #326, 2.649999999999999911 ) ;
#238 = FACE_OUTER_BOUND ( 'NONE', #94, .T. ) ;
#239 = COORDINATED_UNIVERSAL_TIME_OFFSET ( 1, 0, .AHEAD. ) ;
#240 = CARTESIAN_POINT ( 'NONE',  ( 1.133095333162690904E-30, 2.649999999999992806, 3.245314017740476594E-16 ) ) ;
#241 = EDGE_CURVE ( 'NONE', #309, #140, #208, .T. ) ;
#242 = CARTESIAN_POINT ( 'NONE',  ( 3.245314017740465747E-16, -2.649999999999992806, -3.245314017740487934E-16 ) ) ;
#243 = APPROVAL ( #102, 'UNSPECIFIED' ) ;
#244 = EDGE_CURVE ( 'NONE', #157, #77, #148, .T. ) ;
#245 = AXIS2_PLACEMENT_3D ( 'NONE', #319, #317, #48 ) ;
#246 = DIRECTION ( 'NONE',  ( -3.491481338843133355E-15, 1.224646799147353207E-16, -1.000000000000000000 ) ) ;
#247 = VERTEX_POINT ( 'NONE', #287 ) ;
#248 = AXIS2_PLACEMENT_3D ( 'NONE', #158, #192, #337 ) ;
#249 = CC_DESIGN_DATE_AND_TIME_ASSIGNMENT ( #263, #207, ( #7 ) ) ;
#250 = ORIENTED_EDGE ( 'NONE', *, *, #143, .F. ) ;
#251 = ADVANCED_FACE ( 'NONE', ( #43 ), #42, .T. ) ;
#252 = CARTESIAN_POINT ( 'NONE',  ( 5.883949544012307269E-15, 2.649999999999989697, 1.592280640423046290 ) ) ;
#253 = CARTESIAN_POINT ( 'NONE',  ( 1.815570296198429345E-13, 1.987181712026948741E-32, 52.00000000000000000 ) ) ;
#254 = DIRECTION ( 'NONE',  ( -3.491481338843133355E-15, 1.224646799147353207E-16, -1.000000000000000000 ) ) ;
#255 = LOCAL_TIME ( 15, 22, 12.00000000000000000, #239 ) ;
#256 = PRODUCT_DEFINITION_FORMATION_WITH_SPECIFIED_SOURCE ( 'ANY', '', #58, .NOT_KNOWN. ) ;
#257 = PERSON_AND_ORGANIZATION ( #51, #116 ) ;
#258 = CIRCLE ( 'NONE', #85, 2.649999999999989697 ) ;
#259 = CARTESIAN_POINT ( 'NONE',  ( 1.815570296198429345E-13, -6.368163355566236381E-15, 52.00000000000000000 ) ) ;
#260 = ORIENTED_EDGE ( 'NONE', *, *, #16, .F. ) ;
#261 = PERSON_AND_ORGANIZATION ( #51, #116 ) ;
#262 = DIRECTION ( 'NONE',  ( -3.491481338843133355E-15, 1.224646799147353207E-16, -1.000000000000000000 ) ) ;
#263 = DATE_AND_TIME ( #129, #170 ) ;
#264 = ORIENTED_EDGE ( 'NONE', *, *, #244, .T. ) ;
#265 = CARTESIAN_POINT ( 'NONE',  ( 5.559418142238258969E-15, -1.949981389638381065E-16, 1.592280640423046068 ) ) ;
#266 = APPROVAL_STATUS ( 'not_yet_approved' ) ;
#267 = EDGE_CURVE ( 'NONE', #73, #234, #173, .T. ) ;
#268 = DIRECTION ( 'NONE',  ( 3.491481338843133355E-15, -1.224646799147353207E-16, 1.000000000000000000 ) ) ;
#269 = MECHANICAL_CONTEXT ( 'NONE', #271, 'mechanical' ) ;
#270 = DIRECTION ( 'NONE',  ( 0.0000000000000000000, 1.000000000000000000, 0.0000000000000000000 ) ) ;
#271 = APPLICATION_CONTEXT ( 'configuration controlled 3d designs of mechanical parts and assemblies' ) ;
#272 = AXIS2_PLACEMENT_3D ( 'NONE', #253, #12, #210 ) ;
#273 = CYLINDRICAL_SURFACE ( 'NONE', #216, 2.649999999999992806 ) ;
#274 = EDGE_LOOP ( 'NONE', ( #47, #99, #300 ) ) ;
#275 = DIRECTION ( 'NONE',  ( -3.491481338843133355E-15, 1.224646799147353207E-16, -1.000000000000000000 ) ) ;
#276 = ORIENTED_EDGE ( 'NONE', *, *, #204, .F. ) ;
#277 = AXIS2_PLACEMENT_3D ( 'NONE', #28, #193, #113 ) ;
#278 = ORIENTED_EDGE ( 'NONE', *, *, #318, .F. ) ;
#279 = DIRECTION ( 'NONE',  ( -3.491481338843133355E-15, 1.224646799147353207E-16, -1.000000000000000000 ) ) ;
#280 = DIRECTION ( 'NONE',  ( 0.0000000000000000000, 1.000000000000000000, 0.0000000000000000000 ) ) ;
#281 = CARTESIAN_POINT ( 'NONE',  ( 1.815570296198429345E-13, 2.649999999999989697, 52.00000000000000000 ) ) ;
#282 = ORIENTED_EDGE ( 'NONE', *, *, #288, .F. ) ;
#283 = APPROVAL_STATUS ( 'not_yet_approved' ) ;
#284 = FACE_OUTER_BOUND ( 'NONE', #199, .T. ) ;
#285 = ORIENTED_EDGE ( 'NONE', *, *, #204, .T. ) ;
#286 =( GEOMETRIC_REPRESENTATION_CONTEXT ( 3 ) GLOBAL_UNCERTAINTY_ASSIGNED_CONTEXT ( ( #198 ) ) GLOBAL_UNIT_ASSIGNED_CONTEXT ( ( #310, #149, #163 ) ) REPRESENTATION_CONTEXT ( 'NONE', 'WORKASPACE' ) );
#287 = CARTESIAN_POINT ( 'NONE',  ( 2.981725063372035507E-13, 2.649999999999989697, 85.39999999999999147 ) ) ;
#288 = EDGE_CURVE ( 'NONE', #234, #73, #69, .T. ) ;
#289 = PERSON_AND_ORGANIZATION ( #51, #116 ) ;
#290 = DIRECTION ( 'NONE',  ( 0.0000000000000000000, 1.000000000000000000, 0.0000000000000000000 ) ) ;
#291 = DIRECTION ( 'NONE',  ( 0.0000000000000000000, 0.0000000000000000000, 1.000000000000000000 ) ) ;
#292 = VECTOR ( 'NONE', #46, 1000.000000000000000 ) ;
#293 = DIRECTION ( 'NONE',  ( -2.907064066999612739E-31, -1.000000000000000000, -8.182657905551009094E-17 ) ) ;
#294 = FACE_OUTER_BOUND ( 'NONE', #126, .T. ) ;
#295 = ORIENTED_EDGE ( 'NONE', *, *, #178, .T. ) ;
#296 = CYLINDRICAL_SURFACE ( 'NONE', #248, 2.649999999999997691 ) ;
#297 = DESIGN_CONTEXT ( 'detailed design', #37, 'design' ) ;
#298 = CONICAL_SURFACE ( 'NONE', #197, 2.649999999999989697, 1.029744258676649649 ) ;
#299 = EDGE_CURVE ( 'NONE', #103, #140, #185, .T. ) ;
#300 = ORIENTED_EDGE ( 'NONE', *, *, #299, .T. ) ;
#301 = ORIENTED_EDGE ( 'NONE', *, *, #39, .T. ) ;
#302 = ORIENTED_EDGE ( 'NONE', *, *, #11, .T. ) ;
#303 = APPROVAL_PERSON_ORGANIZATION ( #261, #2, #123 ) ;
#304 = PLANE ( 'NONE',  #316 ) ;
#305 = ORIENTED_EDGE ( 'NONE', *, *, #227, .T. ) ;
#306 = PERSON_AND_ORGANIZATION_ROLE ( 'classification_officer' ) ;
#307 = DIRECTION ( 'NONE',  ( -3.491481338843133355E-15, 1.224646799147353207E-16, -1.000000000000000000 ) ) ;
#308 = DATE_AND_TIME ( #213, #315 ) ;
#309 = VERTEX_POINT ( 'NONE', #41 ) ;
#310 =( LENGTH_UNIT ( ) NAMED_UNIT ( * ) SI_UNIT ( .MILLI., .METRE. ) );
#311 = CALENDAR_DATE ( 2021, 2, 9 ) ;
#312 = DIRECTION ( 'NONE',  ( -3.491481338843133355E-15, 1.224646799147353207E-16, -1.000000000000000000 ) ) ;
#313 = CARTESIAN_POINT ( 'NONE',  ( 3.002673951405094433E-13, -1.053196247266723694E-14, 86.00000000000000000 ) ) ;
#314 = SHAPE_DEFINITION_REPRESENTATION ( #34, #66 ) ;
#315 = LOCAL_TIME ( 15, 22, 12.00000000000000000, #127 ) ;
#316 = AXIS2_PLACEMENT_3D ( 'NONE', #205, #72, #177 ) ;
#317 = DIRECTION ( 'NONE',  ( -3.491481338843133355E-15, 1.224646799147353207E-16, -1.000000000000000000 ) ) ;
#318 = EDGE_CURVE ( 'NONE', #157, #332, #30, .T. ) ;
#319 = CARTESIAN_POINT ( 'NONE',  ( 1.815570296198429345E-13, -6.368163355566236381E-15, 52.00000000000000000 ) ) ;
#320 = ORIENTED_EDGE ( 'NONE', *, *, #318, .T. ) ;
#321 = ADVANCED_FACE ( 'NONE', ( #284 ), #333, .T. ) ;
#322 = APPROVAL_PERSON_ORGANIZATION ( #108, #243, #105 ) ;
#323 = ORIENTED_EDGE ( 'NONE', *, *, #117, .F. ) ;
#324 = LINE ( 'NONE', #224, #191 ) ;
#325 = CARTESIAN_POINT ( 'NONE',  ( 3.002673951405094433E-13, 2.049999999999989608, 86.00000000000000000 ) ) ;
#326 = AXIS2_PLACEMENT_3D ( 'NONE', #101, #279, #98 ) ;
#327 = DIRECTION ( 'NONE',  ( -3.491481338843133355E-15, 1.224646799147353207E-16, -1.000000000000000000 ) ) ;
#328 = CC_DESIGN_DATE_AND_TIME_ASSIGNMENT ( #211, #186, ( #215 ) ) ;
#329 = ORIENTED_EDGE ( 'NONE', *, *, #39, .F. ) ;
#330 = SECURITY_CLASSIFICATION_LEVEL ( 'unclassified' ) ;
#331 = COORDINATED_UNIVERSAL_TIME_OFFSET ( 1, 0, .AHEAD. ) ;
#332 = VERTEX_POINT ( 'NONE', #325 ) ;
#333 = PLANE ( 'NONE',  #272 ) ;
#334 = CLOSED_SHELL ( 'NONE', ( #136, #107, #57, #67, #321 ) ) ;
#335 = COORDINATED_UNIVERSAL_TIME_OFFSET ( 1, 0, .AHEAD. ) ;
#336 = CARTESIAN_POINT ( 'NONE',  ( 5.559418142238258969E-15, -1.949981389638381065E-16, 1.592280640423046068 ) ) ;
#337 = DIRECTION ( 'NONE',  ( 4.275831445896959482E-31, 1.000000000000000000, 1.224646799147353207E-16 ) ) ;
ENDSEC;
END-ISO-10303-21;
