ISO-10303-21;
HEADER;
FILE_DESCRIPTION (( 'STEP AP203' ),
    '1' );
FILE_NAME ('40061.step',
    '2021-09-02T13:22:11',
    ( '' ),
    ( '' ),
    'SwSTEP 2.0',
    'SolidWorks 2019',
    '' );
FILE_SCHEMA (( 'CONFIG_CONTROL_DESIGN' ));
ENDSEC;

DATA;
#1 = APPROVAL_STATUS ( 'not_yet_approved' ) ;
#2 = EDGE_CURVE ( 'NONE', #141, #88, #12, .T. ) ;
#3 = CARTESIAN_POINT ( 'NONE',  ( 1.815570296198429345E-13, 1.874699728327310788E-32, 52.00000000000000000 ) ) ;
#4 = ORIENTED_EDGE ( 'NONE', *, *, #89, .T. ) ;
#5 = PERSON_AND_ORGANIZATION ( #40, #13 ) ;
#6 = DIRECTION ( 'NONE',  ( 3.491481338843133355E-15, -1.224646799147353207E-16, 1.000000000000000000 ) ) ;
#7 = AXIS2_PLACEMENT_3D ( 'NONE', #272, #143, #231 ) ;
#8 = FACE_OUTER_BOUND ( 'NONE', #66, .T. ) ;
#9 = CARTESIAN_POINT ( 'NONE',  ( 2.401709296783100426E-13, -2.500000000000003997, 52.00000000000000000 ) ) ;
#10 = EDGE_CURVE ( 'NONE', #217, #216, #38, .T. ) ;
#11 = DIRECTION ( 'NONE',  ( 3.491481338843133355E-15, -1.224646799147353207E-16, 1.000000000000000000 ) ) ;
#12 = CIRCLE ( 'NONE', #37, 2.500000000000001332 ) ;
#13 = ORGANIZATION ( 'UNSPECIFIED', 'UNSPECIFIED', '' ) ;
#14 = DIRECTION ( 'NONE',  ( 0.0000000000000000000, 1.000000000000000000, 0.0000000000000000000 ) ) ;
#15 = PRODUCT_RELATED_PRODUCT_CATEGORY ( 'detail', '', ( #169 ) ) ;
#16 = ORIENTED_EDGE ( 'NONE', *, *, #256, .F. ) ;
#17 = ORIENTED_EDGE ( 'NONE', *, *, #316, .T. ) ;
#18 = CC_DESIGN_APPROVAL ( #175, ( #275 ) ) ;
#19 = ORIENTED_EDGE ( 'NONE', *, *, #157, .F. ) ;
#20 = ADVANCED_FACE ( 'NONE', ( #208 ), #57, .T. ) ;
#21 = PERSON_AND_ORGANIZATION ( #40, #13 ) ;
#22 = DIRECTION ( 'NONE',  ( -3.491481338843133355E-15, 1.224646799147353207E-16, -1.000000000000000000 ) ) ;
#23 = ORIENTED_EDGE ( 'NONE', *, *, #316, .F. ) ;
#24 = DIRECTION ( 'NONE',  ( 0.0000000000000000000, 1.000000000000000000, 0.0000000000000000000 ) ) ;
#25 = DIRECTION ( 'NONE',  ( 0.0000000000000000000, 1.000000000000000000, 0.0000000000000000000 ) ) ;
#26 = AXIS2_PLACEMENT_3D ( 'NONE', #158, #105, #183 ) ;
#27 = VECTOR ( 'NONE', #304, 999.9999999999998863 ) ;
#28 = CARTESIAN_POINT ( 'NONE',  ( 0.0000000000000000000, 0.0000000000000000000, 0.0000000000000000000 ) ) ;
#29 = PERSON_AND_ORGANIZATION_ROLE ( 'design_supplier' ) ;
#30 = APPLICATION_PROTOCOL_DEFINITION ( 'international standard', 'config_control_design', 1994, #201 ) ;
#31 = CLOSED_SHELL ( 'NONE', ( #83, #76, #20, #140, #107 ) ) ;
#32 = APPROVAL_PERSON_ORGANIZATION ( #250, #178, #196 ) ;
#33 = DIRECTION ( 'NONE',  ( -3.491481338843133355E-15, 1.224646799147353207E-16, -1.000000000000000000 ) ) ;
#34 = DIRECTION ( 'NONE',  ( 0.0000000000000000000, 1.000000000000000000, 0.0000000000000000000 ) ) ;
#35 = DIRECTION ( 'NONE',  ( -4.275831445896958607E-31, -1.000000000000000000, -1.224646799147353207E-16 ) ) ;
#36 = APPROVAL ( #103, 'UNSPECIFIED' ) ;
#37 = AXIS2_PLACEMENT_3D ( 'NONE', #39, #290, #108 ) ;
#38 = LINE ( 'NONE', #58, #180 ) ;
#39 = CARTESIAN_POINT ( 'NONE',  ( 2.981725063372035002E-13, -1.045848366471839364E-14, 85.39999999999997726 ) ) ;
#40 = PERSON ( 'UNSPECIFIED', 'UNSPECIFIED', 'UNSPECIFIED', ('UNSPECIFIED'), ('UNSPECIFIED'), ('UNSPECIFIED') ) ;
#41 = CIRCLE ( 'NONE', #26, 2.499999999999997335 ) ;
#42 = EDGE_LOOP ( 'NONE', ( #111, #297, #165, #329 ) ) ;
#43 = CC_DESIGN_DATE_AND_TIME_ASSIGNMENT ( #327, #69, ( #275 ) ) ;
#44 = ADVANCED_FACE ( 'NONE', ( #239 ), #288, .T. ) ;
#45 = VERTEX_POINT ( 'NONE', #9 ) ;
#46 = CARTESIAN_POINT ( 'NONE',  ( 3.061616997868365885E-16, -2.499999999999994227, -3.061616997868386592E-16 ) ) ;
#47 = CIRCLE ( 'NONE', #100, 2.500000000000001332 ) ;
#48 = ORIENTED_EDGE ( 'NONE', *, *, #10, .F. ) ;
#49 = PERSON_AND_ORGANIZATION ( #40, #13 ) ;
#50 = DIRECTION ( 'NONE',  ( -3.491481338843133355E-15, 1.224646799147353207E-16, -1.000000000000000000 ) ) ;
#51 = ORIENTED_EDGE ( 'NONE', *, *, #322, .T. ) ;
#52 = DIRECTION ( 'NONE',  ( -3.491481338843133355E-15, 1.224646799147353207E-16, -1.000000000000000000 ) ) ;
#53 = DATE_AND_TIME ( #225, #142 ) ;
#54 = LINE ( 'NONE', #117, #211 ) ;
#55 = APPROVAL_PERSON_ORGANIZATION ( #5, #36, #209 ) ;
#56 = ADVANCED_FACE ( 'NONE', ( #312 ), #263, .T. ) ;
#57 = CONICAL_SURFACE ( 'NONE', #218, 2.499999999999991118, 1.029744258676649649 ) ;
#58 = CARTESIAN_POINT ( 'NONE',  ( 1.068957861474237287E-30, 2.499999999999994227, 3.061616997868376239E-16 ) ) ;
#59 = CARTESIAN_POINT ( 'NONE',  ( 0.0000000000000000000, 0.0000000000000000000, 0.0000000000000000000 ) ) ;
#60 = APPROVAL_DATE_TIME ( #292, #36 ) ;
#61 = DIRECTION ( 'NONE',  ( -3.491481338843133355E-15, 1.224646799147353207E-16, -1.000000000000000000 ) ) ;
#62 = DIRECTION ( 'NONE',  ( -3.081487911019588313E-31, -1.000000000000000000, -8.673617379884066287E-17 ) ) ;
#63 = PRODUCT_DEFINITION_SHAPE ( 'NONE', 'NONE',  #95 ) ;
#64 = VERTEX_POINT ( 'NONE', #106 ) ;
#65 = CIRCLE ( 'NONE', #294, 2.499999999999991118 ) ;
#66 = EDGE_LOOP ( 'NONE', ( #16, #302 ) ) ;
#67 = DIRECTION ( 'NONE',  ( -3.491481338843133355E-15, 1.224646799147353207E-16, -1.000000000000000000 ) ) ;
#68 = EDGE_LOOP ( 'NONE', ( #163, #300, #17 ) ) ;
#69 = DATE_TIME_ROLE ( 'classification_date' ) ;
#70 = CARTESIAN_POINT ( 'NONE',  ( 1.815570296198429345E-13, -6.368163355566236381E-15, 52.00000000000000000 ) ) ;
#71 = VECTOR ( 'NONE', #326, 1000.000000000000000 ) ;
#72 = ORIENTED_EDGE ( 'NONE', *, *, #156, .T. ) ;
#73 = CARTESIAN_POINT ( 'NONE',  ( 1.815570296198429345E-13, -6.368163355566236381E-15, 52.00000000000000000 ) ) ;
#74 = LINE ( 'NONE', #170, #94 ) ;
#75 = COORDINATED_UNIVERSAL_TIME_OFFSET ( 1, 0, .AHEAD. ) ;
#76 = ADVANCED_FACE ( 'NONE', ( #82 ), #90, .T. ) ;
#77 = EDGE_LOOP ( 'NONE', ( #245, #116, #124, #269 ) ) ;
#78 = CIRCLE ( 'NONE', #172, 2.499999999999991118 ) ;
#79 = CIRCLE ( 'NONE', #246, 1.900000000000001688 ) ;
#80 = DIRECTION ( 'NONE',  ( -3.491481338843133355E-15, 1.224646799147353207E-16, -1.000000000000000000 ) ) ;
#81 = COORDINATED_UNIVERSAL_TIME_OFFSET ( 1, 0, .AHEAD. ) ;
#82 = FACE_OUTER_BOUND ( 'NONE', #68, .T. ) ;
#83 = ADVANCED_FACE ( 'NONE', ( #320 ), #174, .T. ) ;
#84 = CARTESIAN_POINT ( 'NONE',  ( 5.244734096451189686E-15, -1.839605084564510941E-16, 1.502151547568911782 ) ) ;
#85 = CC_DESIGN_APPROVAL ( #178, ( #166 ) ) ;
#86 = CARTESIAN_POINT ( 'NONE',  ( 0.0000000000000000000, 0.0000000000000000000, 0.0000000000000000000 ) ) ;
#87 = ADVANCED_FACE ( 'NONE', ( #179 ), #154, .F. ) ;
#88 = VERTEX_POINT ( 'NONE', #238 ) ;
#89 = EDGE_CURVE ( 'NONE', #64, #216, #78, .T. ) ;
#90 = CONICAL_SURFACE ( 'NONE', #237, 2.499999999999991118, 1.029744258676649649 ) ;
#91 = DIRECTION ( 'NONE',  ( -3.491481338843133355E-15, 1.224646799147353207E-16, -1.000000000000000000 ) ) ;
#92 = CARTESIAN_POINT ( 'NONE',  ( 0.0000000000000000000, 0.0000000000000000000, 0.0000000000000000000 ) ) ;
#93 = CYLINDRICAL_SURFACE ( 'NONE', #7, 2.499999999999994227 ) ;
#94 = VECTOR ( 'NONE', #99, 1000.000000000000000 ) ;
#95 = PRODUCT_DEFINITION ( 'UNKNOWN', '', #166, #301 ) ;
#96 = EDGE_LOOP ( 'NONE', ( #274, #227, #4 ) ) ;
#97 = CARTESIAN_POINT ( 'NONE',  ( 9.370704355793369682E-14, -2.500000000000003997, 52.00000000000000000 ) ) ;
#98 = DATE_TIME_ROLE ( 'creation_date' ) ;
#99 = DIRECTION ( 'NONE',  ( -2.382254525458753757E-15, -0.7071067811865370256, -0.7071067811865580088 ) ) ;
#100 = AXIS2_PLACEMENT_3D ( 'NONE', #266, #33, #240 ) ;
#101 = MECHANICAL_CONTEXT ( 'NONE', #114, 'mechanical' ) ;
#102 = EDGE_LOOP ( 'NONE', ( #323, #188, #19, #324 ) ) ;
#103 = APPROVAL_STATUS ( 'not_yet_approved' ) ;
#104 = DIRECTION ( 'NONE',  ( -3.081487911019588313E-31, -1.000000000000000000, -8.673617379884066287E-17 ) ) ;
#105 = DIRECTION ( 'NONE',  ( -3.491481338843133355E-15, 1.224646799147353207E-16, -1.000000000000000000 ) ) ;
#106 = CARTESIAN_POINT ( 'NONE',  ( 5.244734096451188897E-15, -2.499999999999991118, 1.502151547568911560 ) ) ;
#107 = ADVANCED_FACE ( 'NONE', ( #8 ), #260, .T. ) ;
#108 = DIRECTION ( 'NONE',  ( 0.0000000000000000000, 1.000000000000000000, 0.0000000000000000000 ) ) ;
#109 = VECTOR ( 'NONE', #187, 1000.000000000000000 ) ;
#110 = EDGE_CURVE ( 'NONE', #45, #286, #41, .T. ) ;
#111 = ORIENTED_EDGE ( 'NONE', *, *, #322, .F. ) ;
#112 = EDGE_LOOP ( 'NONE', ( #199, #191, #23, #48 ) ) ;
#113 = ORIENTED_EDGE ( 'NONE', *, *, #89, .F. ) ;
#114 = APPLICATION_CONTEXT ( 'configuration controlled 3d designs of mechanical parts and assemblies' ) ;
#115 = CARTESIAN_POINT ( 'NONE',  ( 3.002673951405094433E-13, 1.899999999999991029, 86.00000000000000000 ) ) ;
#116 = ORIENTED_EDGE ( 'NONE', *, *, #132, .T. ) ;
#117 = CARTESIAN_POINT ( 'NONE',  ( 3.061616997868371801E-16, -2.499999999999999556, -3.061616997868393002E-16 ) ) ;
#118 = EDGE_LOOP ( 'NONE', ( #252, #277 ) ) ;
#119 = CARTESIAN_POINT ( 'NONE',  ( 5.244734096451189686E-15, -1.839605084564510941E-16, 1.502151547568911782 ) ) ;
#120 = LINE ( 'NONE', #336, #220 ) ;
#121 = EDGE_CURVE ( 'NONE', #141, #286, #291, .T. ) ;
#122 = APPROVAL_PERSON_ORGANIZATION ( #330, #175, #203 ) ;
#123 = FACE_OUTER_BOUND ( 'NONE', #205, .T. ) ;
#124 = ORIENTED_EDGE ( 'NONE', *, *, #121, .T. ) ;
#125 = PERSON_AND_ORGANIZATION_ROLE ( 'classification_officer' ) ;
#126 = COORDINATED_UNIVERSAL_TIME_OFFSET ( 1, 0, .AHEAD. ) ;
#127 = LOCAL_TIME ( 15, 22, 11.00000000000000000, #232 ) ;
#128 = CALENDAR_DATE ( 2021, 2, 9 ) ;
#129 = PERSON_AND_ORGANIZATION ( #40, #13 ) ;
#130 = DIRECTION ( 'NONE',  ( -3.491481338843133355E-15, 1.224646799147353207E-16, -1.000000000000000000 ) ) ;
#131 = ADVANCED_BREP_SHAPE_REPRESENTATION ( '40061', ( #267, #278, #148 ), #182 ) ;
#132 = EDGE_CURVE ( 'NONE', #88, #141, #47, .T. ) ;
#133 = CARTESIAN_POINT ( 'NONE',  ( 3.002673951405094433E-13, -1.053196247266723694E-14, 86.00000000000000000 ) ) ;
#134 = EDGE_CURVE ( 'NONE', #230, #217, #253, .T. ) ;
#135 = PLANE ( 'NONE',  #259 ) ;
#136 = LOCAL_TIME ( 15, 22, 11.00000000000000000, #126 ) ;
#137 = UNCERTAINTY_MEASURE_WITH_UNIT (LENGTH_MEASURE( 1.000000000000000082E-05 ), #159, 'distance_accuracy_value', 'NONE');
#138 = CC_DESIGN_PERSON_AND_ORGANIZATION_ASSIGNMENT ( #49, #125, ( #275 ) ) ;
#139 = EDGE_LOOP ( 'NONE', ( #271, #186 ) ) ;
#140 = ADVANCED_FACE ( 'NONE', ( #176 ), #93, .T. ) ;
#141 = VERTEX_POINT ( 'NONE', #190 ) ;
#142 = LOCAL_TIME ( 15, 22, 11.00000000000000000, #75 ) ;
#143 = DIRECTION ( 'NONE',  ( -3.491481338843133355E-15, 1.224646799147353207E-16, -1.000000000000000000 ) ) ;
#144 = CARTESIAN_POINT ( 'NONE',  ( 1.815570296198429345E-13, 2.499999999999991118, 52.00000000000000000 ) ) ;
#145 = CARTESIAN_POINT ( 'NONE',  ( 3.002673951405094433E-13, -1.053196247266723694E-14, 86.00000000000000000 ) ) ;
#146 = APPROVAL_DATE_TIME ( #282, #178 ) ;
#147 = DIRECTION ( 'NONE',  ( -3.491481338843133355E-15, 1.224646799147353207E-16, -1.000000000000000000 ) ) ;
#148 = AXIS2_PLACEMENT_3D ( 'NONE', #206, #311, #204 ) ;
#149 = CC_DESIGN_PERSON_AND_ORGANIZATION_ASSIGNMENT ( #129, #235, ( #169 ) ) ;
#150 = APPROVAL_DATE_TIME ( #287, #175 ) ;
#151 = DIRECTION ( 'NONE',  ( 0.0000000000000000000, 1.000000000000000000, 0.0000000000000000000 ) ) ;
#152 = EDGE_CURVE ( 'NONE', #335, #64, #197, .T. ) ;
#153 = DIRECTION ( 'NONE',  ( -3.491481338843133355E-15, 1.224646799147353207E-16, -1.000000000000000000 ) ) ;
#154 = PLANE ( 'NONE',  #273 ) ;
#155 = DIRECTION ( 'NONE',  ( 4.275831445896958607E-31, 1.000000000000000000, 1.224646799147353207E-16 ) ) ;
#156 = EDGE_CURVE ( 'NONE', #219, #160, #268, .T. ) ;
#157 = EDGE_CURVE ( 'NONE', #286, #45, #314, .T. ) ;
#158 = CARTESIAN_POINT ( 'NONE',  ( 1.815570296198429345E-13, -6.368163355566236381E-15, 52.00000000000000000 ) ) ;
#159 =( LENGTH_UNIT ( ) NAMED_UNIT ( * ) SI_UNIT ( .MILLI., .METRE. ) );
#160 = VERTEX_POINT ( 'NONE', #249 ) ;
#161 = AXIS2_PLACEMENT_3D ( 'NONE', #295, #11, #262 ) ;
#162 = AXIS2_PLACEMENT_3D ( 'NONE', #73, #91, #25 ) ;
#163 = ORIENTED_EDGE ( 'NONE', *, *, #152, .F. ) ;
#164 = CARTESIAN_POINT ( 'NONE',  ( 5.244734096451188897E-15, -2.499999999999991118, 1.502151547568911560 ) ) ;
#165 = ORIENTED_EDGE ( 'NONE', *, *, #207, .T. ) ;
#166 = PRODUCT_DEFINITION_FORMATION_WITH_SPECIFIED_SOURCE ( 'ANY', '', #169, .NOT_KNOWN. ) ;
#167 = LINE ( 'NONE', #115, #27 ) ;
#168 = CARTESIAN_POINT ( 'NONE',  ( 1.815570296198429345E-13, 2.499999999999991118, 52.00000000000000000 ) ) ;
#169 = PRODUCT ( '40061', '40061', '', ( #101 ) ) ;
#170 = CARTESIAN_POINT ( 'NONE',  ( 3.005000780323474174E-13, -1.900000000000012346, 86.00000000000000000 ) ) ;
#171 = APPLICATION_PROTOCOL_DEFINITION ( 'international standard', 'config_control_design', 1994, #114 ) ;
#172 = AXIS2_PLACEMENT_3D ( 'NONE', #84, #80, #181 ) ;
#173 = CC_DESIGN_APPROVAL ( #36, ( #95 ) ) ;
#174 = CYLINDRICAL_SURFACE ( 'NONE', #333, 2.499999999999994227 ) ;
#175 = APPROVAL ( #1, 'UNSPECIFIED' ) ;
#176 = FACE_OUTER_BOUND ( 'NONE', #184, .T. ) ;
#177 = CALENDAR_DATE ( 2021, 2, 9 ) ;
#178 = APPROVAL ( #189, 'UNSPECIFIED' ) ;
#179 = FACE_OUTER_BOUND ( 'NONE', #139, .T. ) ;
#180 = VECTOR ( 'NONE', #153, 1000.000000000000000 ) ;
#181 = DIRECTION ( 'NONE',  ( 3.081487911019588313E-31, 1.000000000000000000, 8.673617379884066287E-17 ) ) ;
#182 =( GEOMETRIC_REPRESENTATION_CONTEXT ( 3 ) GLOBAL_UNCERTAINTY_ASSIGNED_CONTEXT ( ( #137 ) ) GLOBAL_UNIT_ASSIGNED_CONTEXT ( ( #159, #284, #313 ) ) REPRESENTATION_CONTEXT ( 'NONE', 'WORKASPACE' ) );
#183 = DIRECTION ( 'NONE',  ( 0.0000000000000000000, 1.000000000000000000, 0.0000000000000000000 ) ) ;
#184 = EDGE_LOOP ( 'NONE', ( #248, #337, #195, #113 ) ) ;
#185 = AXIS2_PLACEMENT_3D ( 'NONE', #59, #296, #234 ) ;
#186 = ORIENTED_EDGE ( 'NONE', *, *, #110, .T. ) ;
#187 = DIRECTION ( 'NONE',  ( -3.491481338843133355E-15, 1.224646799147353207E-16, -1.000000000000000000 ) ) ;
#188 = ORIENTED_EDGE ( 'NONE', *, *, #279, .T. ) ;
#189 = APPROVAL_STATUS ( 'not_yet_approved' ) ;
#190 = CARTESIAN_POINT ( 'NONE',  ( 2.981725063372035002E-13, 2.499999999999991118, 85.39999999999997726 ) ) ;
#191 = ORIENTED_EDGE ( 'NONE', *, *, #270, .T. ) ;
#192 = LOCAL_TIME ( 15, 22, 11.00000000000000000, #81 ) ;
#193 = SECURITY_CLASSIFICATION_LEVEL ( 'unclassified' ) ;
#194 = CARTESIAN_POINT ( 'NONE',  ( 3.002673951405094433E-13, -1.053196247266723694E-14, 86.00000000000000000 ) ) ;
#195 = ORIENTED_EDGE ( 'NONE', *, *, #10, .T. ) ;
#196 = APPROVAL_ROLE ( '' ) ;
#197 = LINE ( 'NONE', #164, #71 ) ;
#198 = CALENDAR_DATE ( 2021, 2, 9 ) ;
#199 = ORIENTED_EDGE ( 'NONE', *, *, #256, .T. ) ;
#200 = ORIENTED_EDGE ( 'NONE', *, *, #207, .F. ) ;
#201 = APPLICATION_CONTEXT ( 'configuration controlled 3d designs of mechanical parts and assemblies' ) ;
#202 = CC_DESIGN_SECURITY_CLASSIFICATION ( #275, ( #166 ) ) ;
#203 = APPROVAL_ROLE ( '' ) ;
#204 = DIRECTION ( 'NONE',  ( 1.000000000000000000, 0.0000000000000000000, 0.0000000000000000000 ) ) ;
#205 = EDGE_LOOP ( 'NONE', ( #72, #51, #223, #200 ) ) ;
#206 = CARTESIAN_POINT ( 'NONE',  ( 0.0000000000000000000, 0.0000000000000000000, 0.0000000000000000000 ) ) ;
#207 = EDGE_CURVE ( 'NONE', #219, #141, #167, .T. ) ;
#208 = FACE_OUTER_BOUND ( 'NONE', #96, .T. ) ;
#209 = APPROVAL_ROLE ( '' ) ;
#210 = VECTOR ( 'NONE', #130, 1000.000000000000000 ) ;
#211 = VECTOR ( 'NONE', #67, 1000.000000000000000 ) ;
#212 = DIRECTION ( 'NONE',  ( 3.491481338843133355E-15, -1.224646799147353207E-16, 1.000000000000000000 ) ) ;
#213 = PERSON_AND_ORGANIZATION ( #40, #13 ) ;
#214 = DIRECTION ( 'NONE',  ( -3.491481338843133355E-15, 1.224646799147353207E-16, -1.000000000000000000 ) ) ;
#215 = DIRECTION ( 'NONE',  ( -3.491481338843133355E-15, 1.224646799147353207E-16, -1.000000000000000000 ) ) ;
#216 = VERTEX_POINT ( 'NONE', #303 ) ;
#217 = VERTEX_POINT ( 'NONE', #168 ) ;
#218 = AXIS2_PLACEMENT_3D ( 'NONE', #236, #6, #104 ) ;
#219 = VERTEX_POINT ( 'NONE', #226 ) ;
#220 = VECTOR ( 'NONE', #222, 999.9999999999998863 ) ;
#221 = CC_DESIGN_PERSON_AND_ORGANIZATION_ASSIGNMENT ( #257, #280, ( #166 ) ) ;
#222 = DIRECTION ( 'NONE',  ( 1.903218546456022717E-15, 0.8571673007021097801, 0.5150380749100585964 ) ) ;
#223 = ORIENTED_EDGE ( 'NONE', *, *, #2, .F. ) ;
#224 = ADVANCED_FACE ( 'NONE', ( #247 ), #135, .F. ) ;
#225 = CALENDAR_DATE ( 2021, 2, 9 ) ;
#226 = CARTESIAN_POINT ( 'NONE',  ( 3.002673951405094433E-13, 1.899999999999991029, 86.00000000000000000 ) ) ;
#227 = ORIENTED_EDGE ( 'NONE', *, *, #152, .T. ) ;
#228 = DIRECTION ( 'NONE',  ( -3.491481338843133355E-15, 1.224646799147353207E-16, -1.000000000000000000 ) ) ;
#229 = FACE_OUTER_BOUND ( 'NONE', #77, .T. ) ;
#230 = VERTEX_POINT ( 'NONE', #97 ) ;
#231 = DIRECTION ( 'NONE',  ( 4.275831445896958607E-31, 1.000000000000000000, 1.224646799147353207E-16 ) ) ;
#232 = COORDINATED_UNIVERSAL_TIME_OFFSET ( 1, 0, .AHEAD. ) ;
#233 = AXIS2_PLACEMENT_3D ( 'NONE', #194, #331, #306 ) ;
#234 = DIRECTION ( 'NONE',  ( 4.275831445896958607E-31, 1.000000000000000000, 1.224646799147353207E-16 ) ) ;
#235 = PERSON_AND_ORGANIZATION_ROLE ( 'design_owner' ) ;
#236 = CARTESIAN_POINT ( 'NONE',  ( 5.244734096451189686E-15, -1.839605084564510941E-16, 1.502151547568911782 ) ) ;
#237 = AXIS2_PLACEMENT_3D ( 'NONE', #321, #315, #62 ) ;
#238 = CARTESIAN_POINT ( 'NONE',  ( 2.401709296783099416E-13, -2.500000000000011546, 85.39999999999997726 ) ) ;
#239 = FACE_OUTER_BOUND ( 'NONE', #42, .T. ) ;
#240 = DIRECTION ( 'NONE',  ( 0.0000000000000000000, 1.000000000000000000, 0.0000000000000000000 ) ) ;
#241 = AXIS2_PLACEMENT_3D ( 'NONE', #133, #61, #34 ) ;
#242 = CARTESIAN_POINT ( 'NONE',  ( 3.002673951405094433E-13, 1.424771793528750222E-32, 86.00000000000000000 ) ) ;
#243 = AXIS2_PLACEMENT_3D ( 'NONE', #70, #52, #24 ) ;
#244 = CC_DESIGN_DATE_AND_TIME_ASSIGNMENT ( #53, #98, ( #95 ) ) ;
#245 = ORIENTED_EDGE ( 'NONE', *, *, #279, .F. ) ;
#246 = AXIS2_PLACEMENT_3D ( 'NONE', #145, #276, #14 ) ;
#247 = FACE_OUTER_BOUND ( 'NONE', #118, .T. ) ;
#248 = ORIENTED_EDGE ( 'NONE', *, *, #270, .F. ) ;
#249 = CARTESIAN_POINT ( 'NONE',  ( 2.994893730346689093E-13, -1.900000000000012346, 86.00000000000000000 ) ) ;
#250 = PERSON_AND_ORGANIZATION ( #40, #13 ) ;
#251 = LINE ( 'NONE', #46, #109 ) ;
#252 = ORIENTED_EDGE ( 'NONE', *, *, #156, .F. ) ;
#253 = CIRCLE ( 'NONE', #325, 2.499999999999997335 ) ;
#254 = CALENDAR_DATE ( 2021, 2, 9 ) ;
#255 = DIRECTION ( 'NONE',  ( 0.0000000000000000000, 1.000000000000000000, 0.0000000000000000000 ) ) ;
#256 = EDGE_CURVE ( 'NONE', #217, #230, #299, .T. ) ;
#257 = PERSON_AND_ORGANIZATION ( #40, #13 ) ;
#258 = EDGE_CURVE ( 'NONE', #160, #219, #79, .T. ) ;
#259 = AXIS2_PLACEMENT_3D ( 'NONE', #242, #22, #281 ) ;
#260 = PLANE ( 'NONE',  #161 ) ;
#261 = SHAPE_DEFINITION_REPRESENTATION ( #63, #131 ) ;
#262 = DIRECTION ( 'NONE',  ( -4.275831445896958607E-31, -1.000000000000000000, -1.224646799147353207E-16 ) ) ;
#263 = CYLINDRICAL_SURFACE ( 'NONE', #185, 2.499999999999999556 ) ;
#264 = EDGE_CURVE ( 'NONE', #335, #216, #120, .T. ) ;
#265 = CONICAL_SURFACE ( 'NONE', #310, 1.900000000000001688, 0.7853981633974336241 ) ;
#266 = CARTESIAN_POINT ( 'NONE',  ( 2.981725063372035002E-13, -1.045848366471839364E-14, 85.39999999999997726 ) ) ;
#267 = MANIFOLD_SOLID_BREP ( 'Corps-Déplacer/Copier1[1]', #298 ) ;
#268 = CIRCLE ( 'NONE', #233, 1.900000000000001688 ) ;
#269 = ORIENTED_EDGE ( 'NONE', *, *, #110, .F. ) ;
#270 = EDGE_CURVE ( 'NONE', #230, #64, #251, .T. ) ;
#271 = ORIENTED_EDGE ( 'NONE', *, *, #157, .T. ) ;
#272 = CARTESIAN_POINT ( 'NONE',  ( 0.0000000000000000000, 0.0000000000000000000, 0.0000000000000000000 ) ) ;
#273 = AXIS2_PLACEMENT_3D ( 'NONE', #3, #212, #35 ) ;
#274 = ORIENTED_EDGE ( 'NONE', *, *, #264, .F. ) ;
#275 = SECURITY_CLASSIFICATION ( '', '', #193 ) ;
#276 = DIRECTION ( 'NONE',  ( -3.491481338843133355E-15, 1.224646799147353207E-16, -1.000000000000000000 ) ) ;
#277 = ORIENTED_EDGE ( 'NONE', *, *, #258, .F. ) ;
#278 = MANIFOLD_SOLID_BREP ( 'Corps-Déplacer/Copier1[2]', #31 ) ;
#279 = EDGE_CURVE ( 'NONE', #88, #45, #54, .T. ) ;
#280 = PERSON_AND_ORGANIZATION_ROLE ( 'creator' ) ;
#281 = DIRECTION ( 'NONE',  ( 4.275831445896958607E-31, 1.000000000000000000, 1.224646799147353207E-16 ) ) ;
#282 = DATE_AND_TIME ( #198, #289 ) ;
#283 = CARTESIAN_POINT ( 'NONE',  ( 3.002673951405094433E-13, -1.053196247266723694E-14, 86.00000000000000000 ) ) ;
#284 =( NAMED_UNIT ( * ) PLANE_ANGLE_UNIT ( ) SI_UNIT ( $, .RADIAN. ) );
#285 = ADVANCED_FACE ( 'NONE', ( #229 ), #328, .T. ) ;
#286 = VERTEX_POINT ( 'NONE', #144 ) ;
#287 = DATE_AND_TIME ( #128, #136 ) ;
#288 = CONICAL_SURFACE ( 'NONE', #241, 1.900000000000001688, 0.7853981633974336241 ) ;
#289 = LOCAL_TIME ( 15, 22, 11.00000000000000000, #307 ) ;
#290 = DIRECTION ( 'NONE',  ( -3.491481338843133355E-15, 1.224646799147353207E-16, -1.000000000000000000 ) ) ;
#291 = LINE ( 'NONE', #318, #210 ) ;
#292 = DATE_AND_TIME ( #177, #192 ) ;
#293 = CARTESIAN_POINT ( 'NONE',  ( 1.815570296198429345E-13, -6.368163355566236381E-15, 52.00000000000000000 ) ) ;
#294 = AXIS2_PLACEMENT_3D ( 'NONE', #119, #228, #308 ) ;
#295 = CARTESIAN_POINT ( 'NONE',  ( 1.815570296198429345E-13, 1.874699728327310788E-32, 52.00000000000000000 ) ) ;
#296 = DIRECTION ( 'NONE',  ( -3.491481338843133355E-15, 1.224646799147353207E-16, -1.000000000000000000 ) ) ;
#297 = ORIENTED_EDGE ( 'NONE', *, *, #258, .T. ) ;
#298 = CLOSED_SHELL ( 'NONE', ( #332, #56, #87, #285, #44, #224 ) ) ;
#299 = CIRCLE ( 'NONE', #243, 2.499999999999997335 ) ;
#300 = ORIENTED_EDGE ( 'NONE', *, *, #264, .T. ) ;
#301 = DESIGN_CONTEXT ( 'detailed design', #201, 'design' ) ;
#302 = ORIENTED_EDGE ( 'NONE', *, *, #134, .F. ) ;
#303 = CARTESIAN_POINT ( 'NONE',  ( 5.550895796238027556E-15, 2.499999999999991118, 1.502151547568912004 ) ) ;
#304 = DIRECTION ( 'NONE',  ( -2.468850131082301237E-15, 0.7071067811865372477, -0.7071067811865578978 ) ) ;
#305 = AXIS2_PLACEMENT_3D ( 'NONE', #92, #50, #334 ) ;
#306 = DIRECTION ( 'NONE',  ( 0.0000000000000000000, 1.000000000000000000, 0.0000000000000000000 ) ) ;
#307 = COORDINATED_UNIVERSAL_TIME_OFFSET ( 1, 0, .AHEAD. ) ;
#308 = DIRECTION ( 'NONE',  ( 3.081487911019588313E-31, 1.000000000000000000, 8.673617379884066287E-17 ) ) ;
#309 = CC_DESIGN_PERSON_AND_ORGANIZATION_ASSIGNMENT ( #213, #317, ( #95 ) ) ;
#310 = AXIS2_PLACEMENT_3D ( 'NONE', #283, #147, #255 ) ;
#311 = DIRECTION ( 'NONE',  ( 0.0000000000000000000, 0.0000000000000000000, 1.000000000000000000 ) ) ;
#312 = FACE_OUTER_BOUND ( 'NONE', #102, .T. ) ;
#313 =( NAMED_UNIT ( * ) SI_UNIT ( $, .STERADIAN. ) SOLID_ANGLE_UNIT ( ) );
#314 = CIRCLE ( 'NONE', #162, 2.499999999999997335 ) ;
#315 = DIRECTION ( 'NONE',  ( 3.491481338843133355E-15, -1.224646799147353207E-16, 1.000000000000000000 ) ) ;
#316 = EDGE_CURVE ( 'NONE', #216, #64, #65, .T. ) ;
#317 = PERSON_AND_ORGANIZATION_ROLE ( 'creator' ) ;
#318 = CARTESIAN_POINT ( 'NONE',  ( 1.068957861474239389E-30, 2.499999999999999556, 3.061616997868382648E-16 ) ) ;
#319 = CC_DESIGN_PERSON_AND_ORGANIZATION_ASSIGNMENT ( #21, #29, ( #166 ) ) ;
#320 = FACE_OUTER_BOUND ( 'NONE', #112, .T. ) ;
#321 = CARTESIAN_POINT ( 'NONE',  ( 5.244734096451189686E-15, -1.839605084564510941E-16, 1.502151547568911782 ) ) ;
#322 = EDGE_CURVE ( 'NONE', #160, #88, #74, .T. ) ;
#323 = ORIENTED_EDGE ( 'NONE', *, *, #2, .T. ) ;
#324 = ORIENTED_EDGE ( 'NONE', *, *, #121, .F. ) ;
#325 = AXIS2_PLACEMENT_3D ( 'NONE', #293, #214, #151 ) ;
#326 = DIRECTION ( 'NONE',  ( 1.798245827342160317E-15, -0.8571673007021098911, 0.5150380749100582634 ) ) ;
#327 = DATE_AND_TIME ( #254, #127 ) ;
#328 = CYLINDRICAL_SURFACE ( 'NONE', #305, 2.499999999999999556 ) ;
#329 = ORIENTED_EDGE ( 'NONE', *, *, #132, .F. ) ;
#330 = PERSON_AND_ORGANIZATION ( #40, #13 ) ;
#331 = DIRECTION ( 'NONE',  ( -3.491481338843133355E-15, 1.224646799147353207E-16, -1.000000000000000000 ) ) ;
#332 = ADVANCED_FACE ( 'NONE', ( #123 ), #265, .T. ) ;
#333 = AXIS2_PLACEMENT_3D ( 'NONE', #86, #215, #155 ) ;
#334 = DIRECTION ( 'NONE',  ( 4.275831445896958607E-31, 1.000000000000000000, 1.224646799147353207E-16 ) ) ;
#335 = VERTEX_POINT ( 'NONE', #28 ) ;
#336 = CARTESIAN_POINT ( 'NONE',  ( 5.550895796238027556E-15, 2.499999999999991118, 1.502151547568912004 ) ) ;
#337 = ORIENTED_EDGE ( 'NONE', *, *, #134, .T. ) ;
ENDSEC;
END-ISO-10303-21;
