ISO-10303-21;
HEADER;
FILE_DESCRIPTION (( 'STEP AP203' ),
    '1' );
FILE_NAME ('40060.step',
    '2021-09-02T13:22:10',
    ( '' ),
    ( '' ),
    'SwSTEP 2.0',
    'SolidWorks 2019',
    '' );
FILE_SCHEMA (( 'CONFIG_CONTROL_DESIGN' ));
ENDSEC;

DATA;
#1 = ORIENTED_EDGE ( 'NONE', *, *, #53, .T. ) ;
#2 = DATE_TIME_ROLE ( 'classification_date' ) ;
#3 = LINE ( 'NONE', #242, #199 ) ;
#4 = DIRECTION ( 'NONE',  ( 0.0000000000000000000, 1.000000000000000000, 0.0000000000000000000 ) ) ;
#5 = AXIS2_PLACEMENT_3D ( 'NONE', #90, #67, #266 ) ;
#6 = CARTESIAN_POINT ( 'NONE',  ( 3.985997913302901511E-15, -1.398099864269027487E-16, 1.141635176152372200 ) ) ;
#7 = DIRECTION ( 'NONE',  ( -2.382254525458708792E-15, -0.7071067811865495711, -0.7071067811865455743 ) ) ;
#8 = DIRECTION ( 'NONE',  ( 0.0000000000000000000, 1.000000000000000000, 0.0000000000000000000 ) ) ;
#9 = EDGE_CURVE ( 'NONE', #83, #246, #244, .T. ) ;
#10 = AXIS2_PLACEMENT_3D ( 'NONE', #238, #187, #4 ) ;
#11 = LOCAL_TIME ( 15, 22, 10.00000000000000000, #79 ) ;
#12 = DIRECTION ( 'NONE',  ( 0.0000000000000000000, 1.000000000000000000, 0.0000000000000000000 ) ) ;
#13 = ADVANCED_FACE ( 'NONE', ( #35 ), #118, .T. ) ;
#14 = UNCERTAINTY_MEASURE_WITH_UNIT (LENGTH_MEASURE( 1.000000000000000082E-05 ), #234, 'distance_accuracy_value', 'NONE');
#15 = CONICAL_SURFACE ( 'NONE', #208, 1.899999999999992140, 1.029744258676649871 ) ;
#16 = EDGE_LOOP ( 'NONE', ( #305, #321, #282, #257 ) ) ;
#17 = CARTESIAN_POINT ( 'NONE',  ( 1.501336975702547217E-13, -5.265981236333618470E-15, 43.00000000000000000 ) ) ;
#18 = EDGE_CURVE ( 'NONE', #218, #83, #243, .T. ) ;
#19 = CARTESIAN_POINT ( 'NONE',  ( 2.604645078776977357E-13, 1.899999999999991918, 74.59999999999999432 ) ) ;
#20 = DIRECTION ( 'NONE',  ( -3.491481338843133355E-15, 1.224646799147353207E-16, -1.000000000000000000 ) ) ;
#21 = AXIS2_PLACEMENT_3D ( 'NONE', #158, #263, #114 ) ;
#22 = DIRECTION ( 'NONE',  ( 4.275831445896958607E-31, 1.000000000000000000, 1.224646799147353454E-16 ) ) ;
#23 = ORIENTED_EDGE ( 'NONE', *, *, #188, .F. ) ;
#24 = PERSON_AND_ORGANIZATION_ROLE ( 'creator' ) ;
#25 = CC_DESIGN_PERSON_AND_ORGANIZATION_ASSIGNMENT ( #155, #180, ( #34 ) ) ;
#26 = VERTEX_POINT ( 'NONE', #320 ) ;
#27 = COORDINATED_UNIVERSAL_TIME_OFFSET ( 1, 0, .AHEAD. ) ;
#28 = ORIENTED_EDGE ( 'NONE', *, *, #231, .T. ) ;
#29 = APPLICATION_PROTOCOL_DEFINITION ( 'international standard', 'config_control_design', 1994, #210 ) ;
#30 = CARTESIAN_POINT ( 'NONE',  ( 0.0000000000000000000, 0.0000000000000000000, 0.0000000000000000000 ) ) ;
#31 = DIRECTION ( 'NONE',  ( -3.491481338843133355E-15, 1.224646799147353207E-16, -1.000000000000000000 ) ) ;
#32 = COORDINATED_UNIVERSAL_TIME_OFFSET ( 1, 0, .AHEAD. ) ;
#33 = PLANE ( 'NONE',  #5 ) ;
#34 = PRODUCT_DEFINITION_FORMATION_WITH_SPECIFIED_SOURCE ( 'ANY', '', #142, .NOT_KNOWN. ) ;
#35 = FACE_OUTER_BOUND ( 'NONE', #224, .T. ) ;
#36 = DIRECTION ( 'NONE',  ( -3.491481338843133355E-15, 1.224646799147353207E-16, -1.000000000000000000 ) ) ;
#37 = DIRECTION ( 'NONE',  ( 4.054589356604724207E-31, 1.000000000000000000, 1.141265444721588441E-16 ) ) ;
#38 = PERSON ( 'UNSPECIFIED', 'UNSPECIFIED', 'UNSPECIFIED', ('UNSPECIFIED'), ('UNSPECIFIED'), ('UNSPECIFIED') ) ;
#39 = CLOSED_SHELL ( 'NONE', ( #284, #203, #190, #300, #310 ) ) ;
#40 = LOCAL_TIME ( 15, 22, 10.00000000000000000, #262 ) ;
#41 = EDGE_CURVE ( 'NONE', #154, #26, #61, .T. ) ;
#42 = MANIFOLD_SOLID_BREP ( 'Corps-Déplacer/Copier1[2]', #39 ) ;
#43 = CARTESIAN_POINT ( 'NONE',  ( 2.618611004132350143E-13, -9.184850993605148733E-15, 75.00000000000000000 ) ) ;
#44 = AXIS2_PLACEMENT_3D ( 'NONE', #276, #275, #271 ) ;
#45 = ORGANIZATION ( 'UNSPECIFIED', 'UNSPECIFIED', '' ) ;
#46 = EDGE_LOOP ( 'NONE', ( #23, #264, #28 ) ) ;
#47 = CYLINDRICAL_SURFACE ( 'NONE', #279, 1.899999999999994582 ) ;
#48 = CARTESIAN_POINT ( 'NONE',  ( 0.0000000000000000000, 0.0000000000000000000, 0.0000000000000000000 ) ) ;
#49 = VERTEX_POINT ( 'NONE', #323 ) ;
#50 = DIRECTION ( 'NONE',  ( 0.0000000000000000000, 1.000000000000000000, 0.0000000000000000000 ) ) ;
#51 = AXIS2_PLACEMENT_3D ( 'NONE', #255, #226, #50 ) ;
#52 = DATE_AND_TIME ( #81, #228 ) ;
#53 = EDGE_CURVE ( 'NONE', #126, #76, #3, .T. ) ;
#54 = APPROVAL_DATE_TIME ( #185, #91 ) ;
#55 = CONICAL_SURFACE ( 'NONE', #96, 1.500000000000001110, 0.7853981633974512766 ) ;
#56 =( GEOMETRIC_REPRESENTATION_CONTEXT ( 3 ) GLOBAL_UNCERTAINTY_ASSIGNED_CONTEXT ( ( #14 ) ) GLOBAL_UNIT_ASSIGNED_CONTEXT ( ( #234, #212, #151 ) ) REPRESENTATION_CONTEXT ( 'NONE', 'WORKASPACE' ) );
#57 = EDGE_LOOP ( 'NONE', ( #211, #232 ) ) ;
#58 = PERSON_AND_ORGANIZATION ( #38, #45 ) ;
#59 = CARTESIAN_POINT ( 'NONE',  ( 2.618611004132350143E-13, -9.184850993605148733E-15, 75.00000000000000000 ) ) ;
#60 = DATE_AND_TIME ( #87, #200 ) ;
#61 = LINE ( 'NONE', #269, #139 ) ;
#62 = SHAPE_DEFINITION_REPRESENTATION ( #193, #167 ) ;
#63 = ADVANCED_FACE ( 'NONE', ( #112 ), #217, .T. ) ;
#64 = CARTESIAN_POINT ( 'NONE',  ( 2.613709941013214323E-13, -1.500000000000010214, 75.00000000000000000 ) ) ;
#65 = CIRCLE ( 'NONE', #51, 1.899999999999997247 ) ;
#66 = CC_DESIGN_APPROVAL ( #91, ( #34 ) ) ;
#67 = DIRECTION ( 'NONE',  ( -3.491481338843133355E-15, 1.224646799147353207E-16, -1.000000000000000000 ) ) ;
#68 = ORIENTED_EDGE ( 'NONE', *, *, #231, .F. ) ;
#69 = DIRECTION ( 'NONE',  ( -3.491481338843133355E-15, 1.224646799147353207E-16, -1.000000000000000000 ) ) ;
#70 = ADVANCED_FACE ( 'NONE', ( #214 ), #191, .F. ) ;
#71 = CARTESIAN_POINT ( 'NONE',  ( 2.326828918379956574E-16, -1.899999999999994582, -2.326828918379972351E-16 ) ) ;
#72 = EDGE_LOOP ( 'NONE', ( #192, #326, #130, #68 ) ) ;
#73 = CARTESIAN_POINT ( 'NONE',  ( 3.985997913302900722E-15, -1.899999999999992362, 1.141635176152371978 ) ) ;
#74 = DIRECTION ( 'NONE',  ( -3.491481338843133355E-15, 1.224646799147353207E-16, -1.000000000000000000 ) ) ;
#75 = DIRECTION ( 'NONE',  ( 3.491481338843133355E-15, -1.224646799147353207E-16, 1.000000000000000000 ) ) ;
#76 = VERTEX_POINT ( 'NONE', #298 ) ;
#77 = EDGE_CURVE ( 'NONE', #76, #270, #189, .T. ) ;
#78 = PERSON_AND_ORGANIZATION ( #38, #45 ) ;
#79 = COORDINATED_UNIVERSAL_TIME_OFFSET ( 1, 0, .AHEAD. ) ;
#80 = EDGE_LOOP ( 'NONE', ( #204, #259, #181 ) ) ;
#81 = CALENDAR_DATE ( 2021, 2, 9 ) ;
#82 = EDGE_CURVE ( 'NONE', #311, #126, #288, .T. ) ;
#83 = VERTEX_POINT ( 'NONE', #160 ) ;
#84 = APPROVAL_DATE_TIME ( #52, #274 ) ;
#85 = ORIENTED_EDGE ( 'NONE', *, *, #82, .T. ) ;
#86 = PRODUCT_DEFINITION ( 'UNKNOWN', '', #34, #248 ) ;
#87 = CALENDAR_DATE ( 2021, 2, 9 ) ;
#88 = CARTESIAN_POINT ( 'NONE',  ( 1.501336975702547217E-13, 1.424771793528754601E-32, 43.00000000000000000 ) ) ;
#89 = EDGE_CURVE ( 'NONE', #126, #311, #240, .T. ) ;
#90 = CARTESIAN_POINT ( 'NONE',  ( 2.618611004132350143E-13, 1.124819836996380342E-32, 75.00000000000000000 ) ) ;
#91 = APPROVAL ( #133, 'UNSPECIFIED' ) ;
#92 = DIRECTION ( 'NONE',  ( -4.275831445896958607E-31, -1.000000000000000000, -1.224646799147353207E-16 ) ) ;
#93 = AXIS2_PLACEMENT_3D ( 'NONE', #295, #186, #8 ) ;
#94 = DIRECTION ( 'NONE',  ( -3.491481338843133355E-15, 1.224646799147353207E-16, -1.000000000000000000 ) ) ;
#95 = EDGE_LOOP ( 'NONE', ( #141, #206, #314, #201 ) ) ;
#96 = AXIS2_PLACEMENT_3D ( 'NONE', #43, #146, #223 ) ;
#97 = CARTESIAN_POINT ( 'NONE',  ( 3.985997913302900722E-15, -1.899999999999992362, 1.141635176152371978 ) ) ;
#98 = CARTESIAN_POINT ( 'NONE',  ( 3.985997913302901511E-15, -1.398099864269027487E-16, 1.141635176152372200 ) ) ;
#99 = CC_DESIGN_DATE_AND_TIME_ASSIGNMENT ( #292, #2, ( #107 ) ) ;
#100 = CARTESIAN_POINT ( 'NONE',  ( 4.218680805140898450E-15, 1.899999999999991918, 1.141635176152372422 ) ) ;
#101 = VECTOR ( 'NONE', #184, 1000.000000000000000 ) ;
#102 = DIRECTION ( 'NONE',  ( -4.275831445896958607E-31, -1.000000000000000000, -1.224646799147353207E-16 ) ) ;
#103 = EDGE_LOOP ( 'NONE', ( #132, #165, #285, #152 ) ) ;
#104 = CARTESIAN_POINT ( 'NONE',  ( 1.501336975702547217E-13, 1.899999999999991918, 43.00000000000000000 ) ) ;
#105 = CALENDAR_DATE ( 2021, 2, 9 ) ;
#106 = AXIS2_PLACEMENT_3D ( 'NONE', #6, #36, #291 ) ;
#107 = SECURITY_CLASSIFICATION ( '', '', #337 ) ;
#108 = ORIENTED_EDGE ( 'NONE', *, *, #198, .T. ) ;
#109 = DATE_TIME_ROLE ( 'creation_date' ) ;
#110 = APPROVAL_STATUS ( 'not_yet_approved' ) ;
#111 = DATE_AND_TIME ( #105, #176 ) ;
#112 = FACE_OUTER_BOUND ( 'NONE', #16, .T. ) ;
#113 = CLOSED_SHELL ( 'NONE', ( #13, #136, #70, #63, #177, #127 ) ) ;
#114 = DIRECTION ( 'NONE',  ( 0.0000000000000000000, 1.000000000000000000, 0.0000000000000000000 ) ) ;
#115 = CC_DESIGN_DATE_AND_TIME_ASSIGNMENT ( #111, #109, ( #86 ) ) ;
#116 = DIRECTION ( 'NONE',  ( 4.275831445896958607E-31, 1.000000000000000000, 1.224646799147353454E-16 ) ) ;
#117 = FACE_OUTER_BOUND ( 'NONE', #103, .T. ) ;
#118 = CONICAL_SURFACE ( 'NONE', #10, 1.500000000000001110, 0.7853981633974512766 ) ;
#119 = AXIS2_PLACEMENT_3D ( 'NONE', #30, #241, #22 ) ;
#120 = CARTESIAN_POINT ( 'NONE',  ( 2.618611004132350143E-13, 1.499999999999992006, 75.00000000000000000 ) ) ;
#121 = EDGE_CURVE ( 'NONE', #49, #218, #296, .T. ) ;
#122 = CARTESIAN_POINT ( 'NONE',  ( 1.501336975702547217E-13, -5.265981236333618470E-15, 43.00000000000000000 ) ) ;
#123 = CYLINDRICAL_SURFACE ( 'NONE', #194, 1.899999999999994582 ) ;
#124 = FACE_OUTER_BOUND ( 'NONE', #261, .T. ) ;
#125 = DIRECTION ( 'NONE',  ( 3.491481338843133355E-15, -1.224646799147353207E-16, 1.000000000000000000 ) ) ;
#126 = VERTEX_POINT ( 'NONE', #64 ) ;
#127 = ADVANCED_FACE ( 'NONE', ( #161 ), #33, .F. ) ;
#128 = EDGE_LOOP ( 'NONE', ( #147, #137 ) ) ;
#129 = APPROVAL_STATUS ( 'not_yet_approved' ) ;
#130 = ORIENTED_EDGE ( 'NONE', *, *, #18, .T. ) ;
#131 = PERSON_AND_ORGANIZATION ( #38, #45 ) ;
#132 = ORIENTED_EDGE ( 'NONE', *, *, #140, .T. ) ;
#133 = APPROVAL_STATUS ( 'not_yet_approved' ) ;
#134 = AXIS2_PLACEMENT_3D ( 'NONE', #332, #75, #102 ) ;
#135 = DIRECTION ( 'NONE',  ( 0.0000000000000000000, 1.000000000000000000, 0.0000000000000000000 ) ) ;
#136 = ADVANCED_FACE ( 'NONE', ( #117 ), #164, .T. ) ;
#137 = ORIENTED_EDGE ( 'NONE', *, *, #121, .F. ) ;
#138 = DIRECTION ( 'NONE',  ( -3.491481338843133355E-15, 1.224646799147353207E-16, -1.000000000000000000 ) ) ;
#139 = VECTOR ( 'NONE', #31, 1000.000000000000000 ) ;
#140 = EDGE_CURVE ( 'NONE', #154, #76, #308, .T. ) ;
#141 = ORIENTED_EDGE ( 'NONE', *, *, #53, .F. ) ;
#142 = PRODUCT ( '40060', '40060', '', ( #260 ) ) ;
#143 = EDGE_CURVE ( 'NONE', #76, #154, #156, .T. ) ;
#144 = CARTESIAN_POINT ( 'NONE',  ( 3.985997913302901511E-15, -1.398099864269027487E-16, 1.141635176152372200 ) ) ;
#145 = CARTESIAN_POINT ( 'NONE',  ( 0.0000000000000000000, 0.0000000000000000000, 0.0000000000000000000 ) ) ;
#146 = DIRECTION ( 'NONE',  ( -3.491481338843133355E-15, 1.224646799147353207E-16, -1.000000000000000000 ) ) ;
#147 = ORIENTED_EDGE ( 'NONE', *, *, #294, .F. ) ;
#148 = CARTESIAN_POINT ( 'NONE',  ( 0.0000000000000000000, 0.0000000000000000000, 0.0000000000000000000 ) ) ;
#149 = CIRCLE ( 'NONE', #322, 1.899999999999992140 ) ;
#150 = MANIFOLD_SOLID_BREP ( 'Corps-Déplacer/Copier1[1]', #113 ) ;
#151 =( NAMED_UNIT ( * ) SI_UNIT ( $, .STERADIAN. ) SOLID_ANGLE_UNIT ( ) );
#152 = ORIENTED_EDGE ( 'NONE', *, *, #41, .F. ) ;
#153 = APPLICATION_PROTOCOL_DEFINITION ( 'international standard', 'config_control_design', 1994, #247 ) ;
#154 = VERTEX_POINT ( 'NONE', #19 ) ;
#155 = PERSON_AND_ORGANIZATION ( #38, #45 ) ;
#156 = CIRCLE ( 'NONE', #44, 1.900000000000001021 ) ;
#157 = AXIS2_PLACEMENT_3D ( 'NONE', #307, #175, #283 ) ;
#158 = CARTESIAN_POINT ( 'NONE',  ( 2.618611004132350143E-13, -9.184850993605148733E-15, 75.00000000000000000 ) ) ;
#159 = APPROVAL_ROLE ( '' ) ;
#160 = CARTESIAN_POINT ( 'NONE',  ( 4.218680805140898450E-15, 1.899999999999991918, 1.141635176152372422 ) ) ;
#161 = FACE_OUTER_BOUND ( 'NONE', #57, .T. ) ;
#162 = AXIS2_PLACEMENT_3D ( 'NONE', #273, #138, #166 ) ;
#163 = ORIENTED_EDGE ( 'NONE', *, *, #213, .T. ) ;
#164 = CYLINDRICAL_SURFACE ( 'NONE', #119, 1.899999999999999023 ) ;
#165 = ORIENTED_EDGE ( 'NONE', *, *, #77, .T. ) ;
#166 = DIRECTION ( 'NONE',  ( 0.0000000000000000000, 1.000000000000000000, 0.0000000000000000000 ) ) ;
#167 = ADVANCED_BREP_SHAPE_REPRESENTATION ( '40060', ( #150, #42, #157 ), #56 ) ;
#168 = CC_DESIGN_PERSON_AND_ORGANIZATION_ASSIGNMENT ( #78, #24, ( #86 ) ) ;
#169 = FACE_OUTER_BOUND ( 'NONE', #128, .T. ) ;
#170 = VECTOR ( 'NONE', #245, 1000.000000000000000 ) ;
#171 = DIRECTION ( 'NONE',  ( 4.275831445896957731E-31, 1.000000000000000000, 1.224646799147353207E-16 ) ) ;
#172 = DIRECTION ( 'NONE',  ( -3.491481338843133355E-15, 1.224646799147353207E-16, -1.000000000000000000 ) ) ;
#173 = FACE_OUTER_BOUND ( 'NONE', #46, .T. ) ;
#174 = VECTOR ( 'NONE', #205, 1000.000000000000114 ) ;
#175 = DIRECTION ( 'NONE',  ( 0.0000000000000000000, 0.0000000000000000000, 1.000000000000000000 ) ) ;
#176 = LOCAL_TIME ( 15, 22, 10.00000000000000000, #27 ) ;
#177 = ADVANCED_FACE ( 'NONE', ( #202 ), #55, .T. ) ;
#178 = CC_DESIGN_APPROVAL ( #274, ( #86 ) ) ;
#179 = ORIENTED_EDGE ( 'NONE', *, *, #267, .F. ) ;
#180 = PERSON_AND_ORGANIZATION_ROLE ( 'design_supplier' ) ;
#181 = ORIENTED_EDGE ( 'NONE', *, *, #9, .T. ) ;
#182 = PERSON_AND_ORGANIZATION ( #38, #45 ) ;
#183 = AXIS2_PLACEMENT_3D ( 'NONE', #144, #304, #251 ) ;
#184 = DIRECTION ( 'NONE',  ( -3.491481338843133355E-15, 1.224646799147353207E-16, -1.000000000000000000 ) ) ;
#185 = DATE_AND_TIME ( #209, #11 ) ;
#186 = DIRECTION ( 'NONE',  ( -3.491481338843133355E-15, 1.224646799147353207E-16, -1.000000000000000000 ) ) ;
#187 = DIRECTION ( 'NONE',  ( -3.491481338843133355E-15, 1.224646799147353207E-16, -1.000000000000000000 ) ) ;
#188 = EDGE_CURVE ( 'NONE', #336, #83, #327, .T. ) ;
#189 = LINE ( 'NONE', #293, #334 ) ;
#190 = ADVANCED_FACE ( 'NONE', ( #173 ), #15, .T. ) ;
#191 = PLANE ( 'NONE',  #303 ) ;
#192 = ORIENTED_EDGE ( 'NONE', *, *, #277, .F. ) ;
#193 = PRODUCT_DEFINITION_SHAPE ( 'NONE', 'NONE',  #86 ) ;
#194 = AXIS2_PLACEMENT_3D ( 'NONE', #48, #230, #171 ) ;
#195 = LINE ( 'NONE', #71, #216 ) ;
#196 = ORIENTED_EDGE ( 'NONE', *, *, #18, .F. ) ;
#197 = DIRECTION ( 'NONE',  ( -3.491481338843133355E-15, 1.224646799147353207E-16, -1.000000000000000000 ) ) ;
#198 = EDGE_CURVE ( 'NONE', #26, #270, #280, .T. ) ;
#199 = VECTOR ( 'NONE', #7, 1000.000000000000114 ) ;
#200 = LOCAL_TIME ( 15, 22, 10.00000000000000000, #265 ) ;
#201 = ORIENTED_EDGE ( 'NONE', *, *, #143, .F. ) ;
#202 = FACE_OUTER_BOUND ( 'NONE', #95, .T. ) ;
#203 = ADVANCED_FACE ( 'NONE', ( #301 ), #330, .T. ) ;
#204 = ORIENTED_EDGE ( 'NONE', *, *, #250, .F. ) ;
#205 = DIRECTION ( 'NONE',  ( -2.468850131082257455E-15, 0.7071067811865497932, -0.7071067811865453523 ) ) ;
#206 = ORIENTED_EDGE ( 'NONE', *, *, #89, .T. ) ;
#207 = FACE_OUTER_BOUND ( 'NONE', #72, .T. ) ;
#208 = AXIS2_PLACEMENT_3D ( 'NONE', #98, #125, #258 ) ;
#209 = CALENDAR_DATE ( 2021, 2, 9 ) ;
#210 = APPLICATION_CONTEXT ( 'configuration controlled 3d designs of mechanical parts and assemblies' ) ;
#211 = ORIENTED_EDGE ( 'NONE', *, *, #82, .F. ) ;
#212 =( NAMED_UNIT ( * ) PLANE_ANGLE_UNIT ( ) SI_UNIT ( $, .RADIAN. ) );
#213 = EDGE_CURVE ( 'NONE', #270, #26, #316, .T. ) ;
#214 = FACE_OUTER_BOUND ( 'NONE', #249, .T. ) ;
#215 = PERSON_AND_ORGANIZATION_ROLE ( 'creator' ) ;
#216 = VECTOR ( 'NONE', #172, 1000.000000000000000 ) ;
#217 = CYLINDRICAL_SURFACE ( 'NONE', #221, 1.899999999999999023 ) ;
#218 = VERTEX_POINT ( 'NONE', #104 ) ;
#219 = DIRECTION ( 'NONE',  ( -3.491481338843133355E-15, 1.224646799147353207E-16, -1.000000000000000000 ) ) ;
#220 = CC_DESIGN_PERSON_AND_ORGANIZATION_ASSIGNMENT ( #286, #312, ( #107 ) ) ;
#221 = AXIS2_PLACEMENT_3D ( 'NONE', #318, #94, #116 ) ;
#222 = CC_DESIGN_PERSON_AND_ORGANIZATION_ASSIGNMENT ( #309, #215, ( #34 ) ) ;
#223 = DIRECTION ( 'NONE',  ( 0.0000000000000000000, 1.000000000000000000, 0.0000000000000000000 ) ) ;
#224 = EDGE_LOOP ( 'NONE', ( #85, #1, #328, #179 ) ) ;
#225 = DIRECTION ( 'NONE',  ( 0.0000000000000000000, 1.000000000000000000, 0.0000000000000000000 ) ) ;
#226 = DIRECTION ( 'NONE',  ( -3.491481338843133355E-15, 1.224646799147353207E-16, -1.000000000000000000 ) ) ;
#227 = AXIS2_PLACEMENT_3D ( 'NONE', #59, #297, #135 ) ;
#228 = LOCAL_TIME ( 15, 22, 10.00000000000000000, #32 ) ;
#229 = PLANE ( 'NONE',  #134 ) ;
#230 = DIRECTION ( 'NONE',  ( -3.491481338843133355E-15, 1.224646799147353207E-16, -1.000000000000000000 ) ) ;
#231 = EDGE_CURVE ( 'NONE', #246, #83, #149, .T. ) ;
#232 = ORIENTED_EDGE ( 'NONE', *, *, #89, .F. ) ;
#233 = VECTOR ( 'NONE', #302, 1000.000000000000114 ) ;
#234 =( LENGTH_UNIT ( ) NAMED_UNIT ( * ) SI_UNIT ( .MILLI., .METRE. ) );
#235 = CALENDAR_DATE ( 2021, 2, 9 ) ;
#236 = CARTESIAN_POINT ( 'NONE',  ( 8.124079747204196655E-31, 1.899999999999994582, 2.326828918379964462E-16 ) ) ;
#237 = ORIENTED_EDGE ( 'NONE', *, *, #294, .T. ) ;
#238 = CARTESIAN_POINT ( 'NONE',  ( 2.618611004132350143E-13, -9.184850993605148733E-15, 75.00000000000000000 ) ) ;
#239 = PERSON_AND_ORGANIZATION_ROLE ( 'design_owner' ) ;
#240 = CIRCLE ( 'NONE', #21, 1.500000000000001110 ) ;
#241 = DIRECTION ( 'NONE',  ( -3.491481338843133355E-15, 1.224646799147353207E-16, -1.000000000000000000 ) ) ;
#242 = CARTESIAN_POINT ( 'NONE',  ( 2.620447974331071044E-13, -1.500000000000010214, 75.00000000000000000 ) ) ;
#243 = LINE ( 'NONE', #236, #101 ) ;
#244 = CIRCLE ( 'NONE', #106, 1.899999999999992140 ) ;
#245 = DIRECTION ( 'NONE',  ( 1.798245827342159528E-15, -0.8571673007021100021, 0.5150380749100580413 ) ) ;
#246 = VERTEX_POINT ( 'NONE', #73 ) ;
#247 = APPLICATION_CONTEXT ( 'configuration controlled 3d designs of mechanical parts and assemblies' ) ;
#248 = DESIGN_CONTEXT ( 'detailed design', #247, 'design' ) ;
#249 = EDGE_LOOP ( 'NONE', ( #108, #163 ) ) ;
#250 = EDGE_CURVE ( 'NONE', #336, #246, #325, .T. ) ;
#251 = DIRECTION ( 'NONE',  ( -4.054589356604724207E-31, -1.000000000000000000, -1.141265444721588441E-16 ) ) ;
#252 = PRODUCT_RELATED_PRODUCT_CATEGORY ( 'detail', '', ( #142 ) ) ;
#253 = LINE ( 'NONE', #120, #174 ) ;
#254 = ORIENTED_EDGE ( 'NONE', *, *, #277, .T. ) ;
#255 = CARTESIAN_POINT ( 'NONE',  ( 1.501336975702547217E-13, -5.265981236333618470E-15, 43.00000000000000000 ) ) ;
#256 = AXIS2_PLACEMENT_3D ( 'NONE', #122, #74, #225 ) ;
#257 = ORIENTED_EDGE ( 'NONE', *, *, #213, .F. ) ;
#258 = DIRECTION ( 'NONE',  ( -4.054589356604724207E-31, -1.000000000000000000, -1.141265444721588441E-16 ) ) ;
#259 = ORIENTED_EDGE ( 'NONE', *, *, #188, .T. ) ;
#260 = MECHANICAL_CONTEXT ( 'NONE', #210, 'mechanical' ) ;
#261 = EDGE_LOOP ( 'NONE', ( #237, #254, #268, #196 ) ) ;
#262 = COORDINATED_UNIVERSAL_TIME_OFFSET ( 1, 0, .AHEAD. ) ;
#263 = DIRECTION ( 'NONE',  ( -3.491481338843133355E-15, 1.224646799147353207E-16, -1.000000000000000000 ) ) ;
#264 = ORIENTED_EDGE ( 'NONE', *, *, #250, .T. ) ;
#265 = COORDINATED_UNIVERSAL_TIME_OFFSET ( 1, 0, .AHEAD. ) ;
#266 = DIRECTION ( 'NONE',  ( 4.275831445896958607E-31, 1.000000000000000000, 1.224646799147353207E-16 ) ) ;
#267 = EDGE_CURVE ( 'NONE', #311, #154, #253, .T. ) ;
#268 = ORIENTED_EDGE ( 'NONE', *, *, #9, .F. ) ;
#269 = CARTESIAN_POINT ( 'NONE',  ( 8.124079747204217674E-31, 1.899999999999999023, 2.326828918379970379E-16 ) ) ;
#270 = VERTEX_POINT ( 'NONE', #278 ) ;
#271 = DIRECTION ( 'NONE',  ( 0.0000000000000000000, 1.000000000000000000, 0.0000000000000000000 ) ) ;
#272 = APPROVAL_PERSON_ORGANIZATION ( #317, #287, #159 ) ;
#273 = CARTESIAN_POINT ( 'NONE',  ( 2.604645078776977357E-13, -9.135865121639255305E-15, 74.59999999999999432 ) ) ;
#274 = APPROVAL ( #129, 'UNSPECIFIED' ) ;
#275 = DIRECTION ( 'NONE',  ( -3.491481338843133355E-15, 1.224646799147353207E-16, -1.000000000000000000 ) ) ;
#276 = CARTESIAN_POINT ( 'NONE',  ( 2.604645078776977357E-13, -9.135865121639255305E-15, 74.59999999999999432 ) ) ;
#277 = EDGE_CURVE ( 'NONE', #49, #246, #195, .T. ) ;
#278 = CARTESIAN_POINT ( 'NONE',  ( 2.055317856158142154E-13, -1.900000000000002354, 43.00000000000000000 ) ) ;
#279 = AXIS2_PLACEMENT_3D ( 'NONE', #145, #20, #329 ) ;
#280 = CIRCLE ( 'NONE', #299, 1.899999999999997247 ) ;
#281 = APPROVAL_ROLE ( '' ) ;
#282 = ORIENTED_EDGE ( 'NONE', *, *, #41, .T. ) ;
#283 = DIRECTION ( 'NONE',  ( 1.000000000000000000, 0.0000000000000000000, 0.0000000000000000000 ) ) ;
#284 = ADVANCED_FACE ( 'NONE', ( #124 ), #123, .T. ) ;
#285 = ORIENTED_EDGE ( 'NONE', *, *, #198, .F. ) ;
#286 = PERSON_AND_ORGANIZATION ( #38, #45 ) ;
#287 = APPROVAL ( #110, 'UNSPECIFIED' ) ;
#288 = CIRCLE ( 'NONE', #227, 1.500000000000001110 ) ;
#289 = APPROVAL_ROLE ( '' ) ;
#290 = APPROVAL_PERSON_ORGANIZATION ( #58, #91, #281 ) ;
#291 = DIRECTION ( 'NONE',  ( 4.054589356604724207E-31, 1.000000000000000000, 1.141265444721588441E-16 ) ) ;
#292 = DATE_AND_TIME ( #235, #40 ) ;
#293 = CARTESIAN_POINT ( 'NONE',  ( 2.326828918379961997E-16, -1.899999999999999023, -2.326828918379977774E-16 ) ) ;
#294 = EDGE_CURVE ( 'NONE', #218, #49, #65, .T. ) ;
#295 = CARTESIAN_POINT ( 'NONE',  ( 1.501336975702547217E-13, -5.265981236333618470E-15, 43.00000000000000000 ) ) ;
#296 = CIRCLE ( 'NONE', #93, 1.899999999999997247 ) ;
#297 = DIRECTION ( 'NONE',  ( -3.491481338843133355E-15, 1.224646799147353207E-16, -1.000000000000000000 ) ) ;
#298 = CARTESIAN_POINT ( 'NONE',  ( 2.055317856158141396E-13, -1.900000000000010125, 74.59999999999999432 ) ) ;
#299 = AXIS2_PLACEMENT_3D ( 'NONE', #17, #69, #12 ) ;
#300 = ADVANCED_FACE ( 'NONE', ( #207 ), #47, .T. ) ;
#301 = FACE_OUTER_BOUND ( 'NONE', #80, .T. ) ;
#302 = DIRECTION ( 'NONE',  ( 1.903218546456021928E-15, 0.8571673007021098911, 0.5150380749100583744 ) ) ;
#303 = AXIS2_PLACEMENT_3D ( 'NONE', #88, #315, #92 ) ;
#304 = DIRECTION ( 'NONE',  ( 3.491481338843133355E-15, -1.224646799147353207E-16, 1.000000000000000000 ) ) ;
#305 = ORIENTED_EDGE ( 'NONE', *, *, #77, .F. ) ;
#306 = CARTESIAN_POINT ( 'NONE',  ( 2.618611004132350143E-13, 1.499999999999992006, 75.00000000000000000 ) ) ;
#307 = CARTESIAN_POINT ( 'NONE',  ( 0.0000000000000000000, 0.0000000000000000000, 0.0000000000000000000 ) ) ;
#308 = CIRCLE ( 'NONE', #162, 1.900000000000001021 ) ;
#309 = PERSON_AND_ORGANIZATION ( #38, #45 ) ;
#310 = ADVANCED_FACE ( 'NONE', ( #169 ), #229, .T. ) ;
#311 = VERTEX_POINT ( 'NONE', #306 ) ;
#312 = PERSON_AND_ORGANIZATION_ROLE ( 'classification_officer' ) ;
#313 = CC_DESIGN_PERSON_AND_ORGANIZATION_ASSIGNMENT ( #182, #239, ( #142 ) ) ;
#314 = ORIENTED_EDGE ( 'NONE', *, *, #267, .T. ) ;
#315 = DIRECTION ( 'NONE',  ( 3.491481338843133355E-15, -1.224646799147353207E-16, 1.000000000000000000 ) ) ;
#316 = CIRCLE ( 'NONE', #256, 1.899999999999997247 ) ;
#317 = PERSON_AND_ORGANIZATION ( #38, #45 ) ;
#318 = CARTESIAN_POINT ( 'NONE',  ( 0.0000000000000000000, 0.0000000000000000000, 0.0000000000000000000 ) ) ;
#319 = APPROVAL_DATE_TIME ( #60, #287 ) ;
#320 = CARTESIAN_POINT ( 'NONE',  ( 1.501336975702547217E-13, 1.899999999999991918, 43.00000000000000000 ) ) ;
#321 = ORIENTED_EDGE ( 'NONE', *, *, #143, .T. ) ;
#322 = AXIS2_PLACEMENT_3D ( 'NONE', #333, #197, #37 ) ;
#323 = CARTESIAN_POINT ( 'NONE',  ( 7.729253063361661643E-14, -1.900000000000002132, 43.00000000000000000 ) ) ;
#324 = APPROVAL_PERSON_ORGANIZATION ( #131, #274, #289 ) ;
#325 = LINE ( 'NONE', #97, #170 ) ;
#326 = ORIENTED_EDGE ( 'NONE', *, *, #121, .T. ) ;
#327 = LINE ( 'NONE', #100, #233 ) ;
#328 = ORIENTED_EDGE ( 'NONE', *, *, #140, .F. ) ;
#329 = DIRECTION ( 'NONE',  ( 4.275831445896957731E-31, 1.000000000000000000, 1.224646799147353207E-16 ) ) ;
#330 = CONICAL_SURFACE ( 'NONE', #183, 1.899999999999992140, 1.029744258676649871 ) ;
#331 = CC_DESIGN_SECURITY_CLASSIFICATION ( #107, ( #34 ) ) ;
#332 = CARTESIAN_POINT ( 'NONE',  ( 1.501336975702547217E-13, 1.424771793528754601E-32, 43.00000000000000000 ) ) ;
#333 = CARTESIAN_POINT ( 'NONE',  ( 3.985997913302901511E-15, -1.398099864269027487E-16, 1.141635176152372200 ) ) ;
#334 = VECTOR ( 'NONE', #219, 1000.000000000000000 ) ;
#335 = CC_DESIGN_APPROVAL ( #287, ( #107 ) ) ;
#336 = VERTEX_POINT ( 'NONE', #148 ) ;
#337 = SECURITY_CLASSIFICATION_LEVEL ( 'unclassified' ) ;
ENDSEC;
END-ISO-10303-21;
