ISO-10303-21;
HEADER;
FILE_DESCRIPTION (( 'STEP AP203' ),
    '1' );
FILE_NAME ('39997.step',
    '2021-09-03T07:22:07',
    ( '' ),
    ( '' ),
    'SwSTEP 2.0',
    'SolidWorks 2019',
    '' );
FILE_SCHEMA (( 'CONFIG_CONTROL_DESIGN' ));
ENDSEC;

DATA;
#1 = ADVANCED_FACE ( 'NONE', ( #43 ), #245, .T. ) ;
#2 = DATE_AND_TIME ( #225, #231 ) ;
#3 = VECTOR ( 'NONE', #114, 1000.000000000000000 ) ;
#4 = APPROVAL_PERSON_ORGANIZATION ( #128, #39, #226 ) ;
#5 = CARTESIAN_POINT ( 'NONE',  ( 0.0000000000000000000, 0.0000000000000000000, 0.0000000000000000000 ) ) ;
#6 = FACE_OUTER_BOUND ( 'NONE', #304, .T. ) ;
#7 = CALENDAR_DATE ( 2021, 3, 9 ) ;
#8 = DIRECTION ( 'NONE',  ( 1.903218546456022717E-15, 0.8571673007021097801, 0.5150380749100585964 ) ) ;
#9 = EDGE_LOOP ( 'NONE', ( #263, #138, #160, #296 ) ) ;
#10 = DATE_TIME_ROLE ( 'classification_date' ) ;
#11 = AXIS2_PLACEMENT_3D ( 'NONE', #328, #71, #248 ) ;
#12 = ORIENTED_EDGE ( 'NONE', *, *, #234, .T. ) ;
#13 = EDGE_LOOP ( 'NONE', ( #88, #12, #232, #153 ) ) ;
#14 = EDGE_CURVE ( 'NONE', #228, #188, #119, .T. ) ;
#15 = AXIS2_PLACEMENT_3D ( 'NONE', #247, #170, #251 ) ;
#16 = ORIENTED_EDGE ( 'NONE', *, *, #14, .T. ) ;
#17 = SHAPE_DEFINITION_REPRESENTATION ( #220, #256 ) ;
#18 = ORIENTED_EDGE ( 'NONE', *, *, #166, .F. ) ;
#19 = DIRECTION ( 'NONE',  ( -3.491481338843133355E-15, 1.224646799147353207E-16, -1.000000000000000000 ) ) ;
#20 = CARTESIAN_POINT ( 'NONE',  ( 1.058268282859494930E-30, 2.474999999999994760, 3.031000827889692353E-16 ) ) ;
#21 = CLOSED_SHELL ( 'NONE', ( #1, #185, #174, #85, #26 ) ) ;
#22 = CARTESIAN_POINT ( 'NONE',  ( 2.147261023388527077E-13, -7.531577814756222656E-15, 61.50000000000000000 ) ) ;
#23 = APPROVAL ( #136, 'UNSPECIFIED' ) ;
#24 = CIRCLE ( 'NONE', #67, 2.474999999999993427 ) ;
#25 = CARTESIAN_POINT ( 'NONE',  ( 5.192286755486682609E-15, -1.821209033718867892E-16, 1.487130032093224363 ) ) ;
#26 = ADVANCED_FACE ( 'NONE', ( #6 ), #204, .T. ) ;
#27 = FACE_OUTER_BOUND ( 'NONE', #197, .T. ) ;
#28 = PERSON_AND_ORGANIZATION ( #239, #327 ) ;
#29 = EDGE_LOOP ( 'NONE', ( #143, #221, #76 ) ) ;
#30 = AXIS2_PLACEMENT_3D ( 'NONE', #56, #311, #83 ) ;
#31 = CALENDAR_DATE ( 2021, 3, 9 ) ;
#32 = DIRECTION ( 'NONE',  ( 3.491481338843133355E-15, -1.224646799147353207E-16, 1.000000000000000000 ) ) ;
#33 = FACE_OUTER_BOUND ( 'NONE', #130, .T. ) ;
#34 = CARTESIAN_POINT ( 'NONE',  ( 6.982962677686266711E-14, -2.449293598294706513E-15, 20.00000000000000000 ) ) ;
#35 = ORIENTED_EDGE ( 'NONE', *, *, #240, .T. ) ;
#36 = VECTOR ( 'NONE', #19, 1000.000000000000000 ) ;
#37 = EDGE_CURVE ( 'NONE', #55, #188, #195, .T. ) ;
#38 = ORIENTED_EDGE ( 'NONE', *, *, #108, .T. ) ;
#39 = APPROVAL ( #61, 'UNSPECIFIED' ) ;
#40 = PERSON_AND_ORGANIZATION_ROLE ( 'design_supplier' ) ;
#41 = AXIS2_PLACEMENT_3D ( 'NONE', #302, #200, #305 ) ;
#42 = VERTEX_POINT ( 'NONE', #335 ) ;
#43 = FACE_OUTER_BOUND ( 'NONE', #298, .T. ) ;
#44 = APPLICATION_PROTOCOL_DEFINITION ( 'international standard', 'config_control_design', 1994, #111 ) ;
#45 = LINE ( 'NONE', #93, #3 ) ;
#46 = MECHANICAL_CONTEXT ( 'NONE', #111, 'mechanical' ) ;
#47 = EDGE_CURVE ( 'NONE', #258, #228, #230, .T. ) ;
#48 = CIRCLE ( 'NONE', #15, 1.975000000000000977 ) ;
#49 = APPROVAL_PERSON_ORGANIZATION ( #107, #23, #210 ) ;
#50 = CARTESIAN_POINT ( 'NONE',  ( 6.982962677686266711E-14, 1.855952731044041811E-32, 20.00000000000000000 ) ) ;
#51 = APPROVAL ( #54, 'UNSPECIFIED' ) ;
#52 = VECTOR ( 'NONE', #100, 1000.000000000000000 ) ;
#53 = CC_DESIGN_APPROVAL ( #23, ( #116 ) ) ;
#54 = APPROVAL_STATUS ( 'not_yet_approved' ) ;
#55 = VERTEX_POINT ( 'NONE', #177 ) ;
#56 = CARTESIAN_POINT ( 'NONE',  ( 2.164718430082742680E-13, -7.592810154713590230E-15, 62.00000000000000000 ) ) ;
#57 = EDGE_LOOP ( 'NONE', ( #132, #284 ) ) ;
#58 = CARTESIAN_POINT ( 'NONE',  ( 5.192286755486681820E-15, -2.474999999999993427, 1.487130032093224141 ) ) ;
#59 = DIRECTION ( 'NONE',  ( 3.112614051534934960E-31, 1.000000000000000000, 8.761229676650564325E-17 ) ) ;
#60 = PLANE ( 'NONE',  #163 ) ;
#61 = APPROVAL_STATUS ( 'not_yet_approved' ) ;
#62 = AXIS2_PLACEMENT_3D ( 'NONE', #261, #32, #207 ) ;
#63 = CARTESIAN_POINT ( 'NONE',  ( 3.031000827889681999E-16, -2.474999999999994760, -3.031000827889702707E-16 ) ) ;
#64 = LINE ( 'NONE', #161, #299 ) ;
#65 = DIRECTION ( 'NONE',  ( -3.491481338843133355E-15, 1.224646799147353207E-16, -1.000000000000000000 ) ) ;
#66 = PERSON_AND_ORGANIZATION_ROLE ( 'creator' ) ;
#67 = AXIS2_PLACEMENT_3D ( 'NONE', #262, #289, #162 ) ;
#68 = LINE ( 'NONE', #181, #213 ) ;
#69 = EDGE_LOOP ( 'NONE', ( #292, #233, #16, #78 ) ) ;
#70 = CIRCLE ( 'NONE', #199, 2.474999999999995648 ) ;
#71 = DIRECTION ( 'NONE',  ( -3.491481338843133355E-15, 1.224646799147353207E-16, -1.000000000000000000 ) ) ;
#72 = ADVANCED_FACE ( 'NONE', ( #287 ), #208, .T. ) ;
#73 = CONICAL_SURFACE ( 'NONE', #113, 2.474999999999993427, 1.029744258676649649 ) ;
#74 = CARTESIAN_POINT ( 'NONE',  ( 2.164718430082742680E-13, 1.481012785378573577E-32, 62.00000000000000000 ) ) ;
#75 = DIRECTION ( 'NONE',  ( -3.491481338843133355E-15, 1.224646799147353207E-16, -1.000000000000000000 ) ) ;
#76 = ORIENTED_EDGE ( 'NONE', *, *, #196, .T. ) ;
#77 = DATE_AND_TIME ( #7, #90 ) ;
#78 = ORIENTED_EDGE ( 'NONE', *, *, #37, .F. ) ;
#79 = DIRECTION ( 'NONE',  ( -3.491481338843133355E-15, 1.224646799147353207E-16, -1.000000000000000000 ) ) ;
#80 = CC_DESIGN_DATE_AND_TIME_ASSIGNMENT ( #205, #10, ( #116 ) ) ;
#81 = DIRECTION ( 'NONE',  ( -3.491481338843133355E-15, 1.224646799147353207E-16, -1.000000000000000000 ) ) ;
#82 = AXIS2_PLACEMENT_3D ( 'NONE', #5, #182, #314 ) ;
#83 = DIRECTION ( 'NONE',  ( 0.0000000000000000000, 1.000000000000000000, 0.0000000000000000000 ) ) ;
#84 = CARTESIAN_POINT ( 'NONE',  ( 2.147261023388527077E-13, 2.474999999999993427, 61.50000000000000000 ) ) ;
#85 = ADVANCED_FACE ( 'NONE', ( #33 ), #97, .T. ) ;
#86 = ORIENTED_EDGE ( 'NONE', *, *, #187, .T. ) ;
#87 = LINE ( 'NONE', #63, #194 ) ;
#88 = ORIENTED_EDGE ( 'NONE', *, *, #307, .T. ) ;
#89 = CONICAL_SURFACE ( 'NONE', #62, 2.474999999999993427, 1.029744258676649649 ) ;
#90 = LOCAL_TIME ( 9, 22, 7.000000000000000000, #103 ) ;
#91 = ORIENTED_EDGE ( 'NONE', *, *, #300, .T. ) ;
#92 = PRODUCT_DEFINITION ( 'UNKNOWN', '', #102, #191 ) ;
#93 = CARTESIAN_POINT ( 'NONE',  ( 3.031000827889686437E-16, -2.474999999999997868, -3.031000827889707144E-16 ) ) ;
#94 = CARTESIAN_POINT ( 'NONE',  ( 5.495386838275652732E-15, 2.474999999999993427, 1.487130032093224585 ) ) ;
#95 = CONICAL_SURFACE ( 'NONE', #246, 1.975000000000000977, 0.7853981633974473908 ) ;
#96 = DIRECTION ( 'NONE',  ( 0.0000000000000000000, 1.000000000000000000, 0.0000000000000000000 ) ) ;
#97 = CYLINDRICAL_SURFACE ( 'NONE', #325, 2.474999999999994760 ) ;
#98 = DIRECTION ( 'NONE',  ( -2.382254525458719047E-15, -0.7071067811865467956, -0.7071067811865483499 ) ) ;
#99 = DIRECTION ( 'NONE',  ( 4.275831445896958607E-31, 1.000000000000000000, 1.224646799147352961E-16 ) ) ;
#100 = DIRECTION ( 'NONE',  ( -3.491481338843133355E-15, 1.224646799147353207E-16, -1.000000000000000000 ) ) ;
#101 = CLOSED_SHELL ( 'NONE', ( #72, #104, #294, #198, #316, #134 ) ) ;
#102 = PRODUCT_DEFINITION_FORMATION_WITH_SPECIFIED_SOURCE ( 'ANY', '', #257, .NOT_KNOWN. ) ;
#103 = COORDINATED_UNIVERSAL_TIME_OFFSET ( 1, 0, .AHEAD. ) ;
#104 = ADVANCED_FACE ( 'NONE', ( #277 ), #144, .T. ) ;
#105 = CC_DESIGN_PERSON_AND_ORGANIZATION_ASSIGNMENT ( #123, #222, ( #92 ) ) ;
#106 = AXIS2_PLACEMENT_3D ( 'NONE', #308, #176, #286 ) ;
#107 = PERSON_AND_ORGANIZATION ( #239, #327 ) ;
#108 = EDGE_CURVE ( 'NONE', #122, #268, #297, .T. ) ;
#109 = VERTEX_POINT ( 'NONE', #331 ) ;
#110 = DIRECTION ( 'NONE',  ( 4.275831445896958607E-31, 1.000000000000000000, 1.224646799147353207E-16 ) ) ;
#111 = APPLICATION_CONTEXT ( 'configuration controlled 3d designs of mechanical parts and assemblies' ) ;
#112 = COORDINATED_UNIVERSAL_TIME_OFFSET ( 1, 0, .AHEAD. ) ;
#113 = AXIS2_PLACEMENT_3D ( 'NONE', #193, #250, #212 ) ;
#114 = DIRECTION ( 'NONE',  ( -3.491481338843133355E-15, 1.224646799147353207E-16, -1.000000000000000000 ) ) ;
#115 = VECTOR ( 'NONE', #217, 1000.000000000000000 ) ;
#116 = SECURITY_CLASSIFICATION ( '', '', #319 ) ;
#117 = EDGE_CURVE ( 'NONE', #228, #258, #332, .T. ) ;
#118 = APPLICATION_PROTOCOL_DEFINITION ( 'international standard', 'config_control_design', 1994, #282 ) ;
#119 = LINE ( 'NONE', #152, #52 ) ;
#120 = AXIS2_PLACEMENT_3D ( 'NONE', #22, #142, #96 ) ;
#121 = LOCAL_TIME ( 9, 22, 7.000000000000000000, #112 ) ;
#122 = VERTEX_POINT ( 'NONE', #242 ) ;
#123 = PERSON_AND_ORGANIZATION ( #239, #327 ) ;
#124 = CARTESIAN_POINT ( 'NONE',  ( 0.0000000000000000000, 0.0000000000000000000, 0.0000000000000000000 ) ) ;
#125 = DIRECTION ( 'NONE',  ( 0.0000000000000000000, 1.000000000000000000, 0.0000000000000000000 ) ) ;
#126 = AXIS2_PLACEMENT_3D ( 'NONE', #279, #81, #125 ) ;
#127 = EDGE_CURVE ( 'NONE', #188, #55, #70, .T. ) ;
#128 = PERSON_AND_ORGANIZATION ( #239, #327 ) ;
#129 = DIRECTION ( 'NONE',  ( 0.0000000000000000000, 1.000000000000000000, 0.0000000000000000000 ) ) ;
#130 = EDGE_LOOP ( 'NONE', ( #255, #318, #38, #237 ) ) ;
#131 = LINE ( 'NONE', #58, #271 ) ;
#132 = ORIENTED_EDGE ( 'NONE', *, *, #127, .T. ) ;
#133 = DIRECTION ( 'NONE',  ( -3.491481338843133355E-15, 1.224646799147353207E-16, -1.000000000000000000 ) ) ;
#134 = ADVANCED_FACE ( 'NONE', ( #167 ), #60, .F. ) ;
#135 = AXIS2_PLACEMENT_3D ( 'NONE', #34, #133, #211 ) ;
#136 = APPROVAL_STATUS ( 'not_yet_approved' ) ;
#137 =( NAMED_UNIT ( * ) PLANE_ANGLE_UNIT ( ) SI_UNIT ( $, .RADIAN. ) );
#138 = ORIENTED_EDGE ( 'NONE', *, *, #265, .T. ) ;
#139 = CC_DESIGN_PERSON_AND_ORGANIZATION_ASSIGNMENT ( #322, #270, ( #116 ) ) ;
#140 =( GEOMETRIC_REPRESENTATION_CONTEXT ( 3 ) GLOBAL_UNCERTAINTY_ASSIGNED_CONTEXT ( ( #329 ) ) GLOBAL_UNIT_ASSIGNED_CONTEXT ( ( #293, #137, #252 ) ) REPRESENTATION_CONTEXT ( 'NONE', 'WORKASPACE' ) );
#141 = APPROVAL_PERSON_ORGANIZATION ( #28, #51, #280 ) ;
#142 = DIRECTION ( 'NONE',  ( -3.491481338843133355E-15, 1.224646799147353207E-16, -1.000000000000000000 ) ) ;
#143 = ORIENTED_EDGE ( 'NONE', *, *, #300, .F. ) ;
#144 = CYLINDRICAL_SURFACE ( 'NONE', #173, 2.474999999999997868 ) ;
#145 = CALENDAR_DATE ( 2021, 3, 9 ) ;
#146 = EDGE_LOOP ( 'NONE', ( #18, #91, #86 ) ) ;
#147 = DIRECTION ( 'NONE',  ( 0.0000000000000000000, 0.0000000000000000000, 1.000000000000000000 ) ) ;
#148 = APPROVAL_DATE_TIME ( #77, #51 ) ;
#149 = ORIENTED_EDGE ( 'NONE', *, *, #216, .F. ) ;
#150 = FACE_OUTER_BOUND ( 'NONE', #69, .T. ) ;
#151 = CC_DESIGN_PERSON_AND_ORGANIZATION_ASSIGNMENT ( #169, #333, ( #257 ) ) ;
#152 = CARTESIAN_POINT ( 'NONE',  ( 1.058268282859496331E-30, 2.474999999999997868, 3.031000827889696790E-16 ) ) ;
#153 = ORIENTED_EDGE ( 'NONE', *, *, #240, .F. ) ;
#154 = DIRECTION ( 'NONE',  ( 0.0000000000000000000, 1.000000000000000000, 0.0000000000000000000 ) ) ;
#155 = COORDINATED_UNIVERSAL_TIME_OFFSET ( 1, 0, .AHEAD. ) ;
#156 = ORIENTED_EDGE ( 'NONE', *, *, #157, .T. ) ;
#157 = EDGE_CURVE ( 'NONE', #109, #42, #87, .T. ) ;
#158 = MANIFOLD_SOLID_BREP ( 'Corps-Déplacer/Copier1[2]', #21 ) ;
#159 = CIRCLE ( 'NONE', #295, 2.474999999999993427 ) ;
#160 = ORIENTED_EDGE ( 'NONE', *, *, #127, .F. ) ;
#161 = CARTESIAN_POINT ( 'NONE',  ( 2.167137107511058390E-13, -1.975000000000008971, 62.00000000000000000 ) ) ;
#162 = DIRECTION ( 'NONE',  ( 3.112614051534934960E-31, 1.000000000000000000, 8.761229676650564325E-17 ) ) ;
#163 = AXIS2_PLACEMENT_3D ( 'NONE', #74, #201, #110 ) ;
#164 = CC_DESIGN_APPROVAL ( #39, ( #92 ) ) ;
#165 = COORDINATED_UNIVERSAL_TIME_OFFSET ( 1, 0, .AHEAD. ) ;
#166 = EDGE_CURVE ( 'NONE', #306, #268, #68, .T. ) ;
#167 = FACE_OUTER_BOUND ( 'NONE', #309, .T. ) ;
#168 = CIRCLE ( 'NONE', #30, 1.975000000000000977 ) ;
#169 = PERSON_AND_ORGANIZATION ( #239, #327 ) ;
#170 = DIRECTION ( 'NONE',  ( -3.491481338843133355E-15, 1.224646799147353207E-16, -1.000000000000000000 ) ) ;
#171 = CARTESIAN_POINT ( 'NONE',  ( 2.164718430082742680E-13, -7.592810154713590230E-15, 62.00000000000000000 ) ) ;
#172 = DATE_TIME_ROLE ( 'creation_date' ) ;
#173 = AXIS2_PLACEMENT_3D ( 'NONE', #273, #218, #244 ) ;
#174 = ADVANCED_FACE ( 'NONE', ( #203 ), #89, .T. ) ;
#175 = CARTESIAN_POINT ( 'NONE',  ( 6.982962677686266711E-14, -2.449293598294706513E-15, 20.00000000000000000 ) ) ;
#176 = DIRECTION ( 'NONE',  ( -3.491481338843133355E-15, 1.224646799147353207E-16, -1.000000000000000000 ) ) ;
#177 = CARTESIAN_POINT ( 'NONE',  ( 1.425809646406466007E-13, -2.474999999999998312, 20.00000000000000000 ) ) ;
#178 = ORIENTED_EDGE ( 'NONE', *, *, #216, .T. ) ;
#179 = CYLINDRICAL_SURFACE ( 'NONE', #82, 2.474999999999997868 ) ;
#180 = CARTESIAN_POINT ( 'NONE',  ( 2.164718430082742680E-13, -7.592810154713590230E-15, 62.00000000000000000 ) ) ;
#181 = CARTESIAN_POINT ( 'NONE',  ( 5.495386838275652732E-15, 2.474999999999993427, 1.487130032093224585 ) ) ;
#182 = DIRECTION ( 'NONE',  ( -3.491481338843133355E-15, 1.224646799147353207E-16, -1.000000000000000000 ) ) ;
#183 = ORIENTED_EDGE ( 'NONE', *, *, #290, .F. ) ;
#184 = LOCAL_TIME ( 9, 22, 7.000000000000000000, #165 ) ;
#185 = ADVANCED_FACE ( 'NONE', ( #312 ), #73, .T. ) ;
#186 = APPROVAL_DATE_TIME ( #320, #23 ) ;
#187 = EDGE_CURVE ( 'NONE', #42, #268, #24, .T. ) ;
#188 = VERTEX_POINT ( 'NONE', #266 ) ;
#189 = VERTEX_POINT ( 'NONE', #241 ) ;
#190 = AXIS2_PLACEMENT_3D ( 'NONE', #274, #147, #323 ) ;
#191 = DESIGN_CONTEXT ( 'detailed design', #282, 'design' ) ;
#192 = VERTEX_POINT ( 'NONE', #337 ) ;
#193 = CARTESIAN_POINT ( 'NONE',  ( 5.192286755486682609E-15, -1.821209033718867892E-16, 1.487130032093224363 ) ) ;
#194 = VECTOR ( 'NONE', #65, 1000.000000000000000 ) ;
#195 = CIRCLE ( 'NONE', #313, 2.474999999999995648 ) ;
#196 = EDGE_CURVE ( 'NONE', #268, #42, #159, .T. ) ;
#197 = EDGE_LOOP ( 'NONE', ( #317, #243, #35, #236 ) ) ;
#198 = ADVANCED_FACE ( 'NONE', ( #150 ), #179, .T. ) ;
#199 = AXIS2_PLACEMENT_3D ( 'NONE', #324, #215, #330 ) ;
#200 = DIRECTION ( 'NONE',  ( 3.491481338843133355E-15, -1.224646799147353207E-16, 1.000000000000000000 ) ) ;
#201 = DIRECTION ( 'NONE',  ( -3.491481338843133355E-15, 1.224646799147353207E-16, -1.000000000000000000 ) ) ;
#202 = ORIENTED_EDGE ( 'NONE', *, *, #326, .F. ) ;
#203 = FACE_OUTER_BOUND ( 'NONE', #146, .T. ) ;
#204 = PLANE ( 'NONE',  #41 ) ;
#205 = DATE_AND_TIME ( #145, #184 ) ;
#206 = CARTESIAN_POINT ( 'NONE',  ( 0.0000000000000000000, 0.0000000000000000000, 0.0000000000000000000 ) ) ;
#207 = DIRECTION ( 'NONE',  ( -3.112614051534934960E-31, -1.000000000000000000, -8.761229676650564325E-17 ) ) ;
#208 = CONICAL_SURFACE ( 'NONE', #238, 1.975000000000000977, 0.7853981633974473908 ) ;
#209 = CC_DESIGN_SECURITY_CLASSIFICATION ( #116, ( #102 ) ) ;
#210 = APPROVAL_ROLE ( '' ) ;
#211 = DIRECTION ( 'NONE',  ( 0.0000000000000000000, 1.000000000000000000, 0.0000000000000000000 ) ) ;
#212 = DIRECTION ( 'NONE',  ( -3.112614051534934960E-31, -1.000000000000000000, -8.761229676650564325E-17 ) ) ;
#213 = VECTOR ( 'NONE', #8, 999.9999999999998863 ) ;
#214 = LOCAL_TIME ( 9, 22, 7.000000000000000000, #227 ) ;
#215 = DIRECTION ( 'NONE',  ( -3.491481338843133355E-15, 1.224646799147353207E-16, -1.000000000000000000 ) ) ;
#216 = EDGE_CURVE ( 'NONE', #122, #109, #253, .T. ) ;
#217 = DIRECTION ( 'NONE',  ( -2.468850131082267710E-15, 0.7071067811865470176, -0.7071067811865481278 ) ) ;
#218 = DIRECTION ( 'NONE',  ( -3.491481338843133355E-15, 1.224646799147353207E-16, -1.000000000000000000 ) ) ;
#219 = LINE ( 'NONE', #276, #115 ) ;
#220 = PRODUCT_DEFINITION_SHAPE ( 'NONE', 'NONE',  #92 ) ;
#221 = ORIENTED_EDGE ( 'NONE', *, *, #166, .T. ) ;
#222 = PERSON_AND_ORGANIZATION_ROLE ( 'creator' ) ;
#223 = ORIENTED_EDGE ( 'NONE', *, *, #108, .F. ) ;
#224 = DIRECTION ( 'NONE',  ( -3.491481338843133355E-15, 1.224646799147353207E-16, -1.000000000000000000 ) ) ;
#225 = CALENDAR_DATE ( 2021, 3, 9 ) ;
#226 = APPROVAL_ROLE ( '' ) ;
#227 = COORDINATED_UNIVERSAL_TIME_OFFSET ( 1, 0, .AHEAD. ) ;
#228 = VERTEX_POINT ( 'NONE', #84 ) ;
#229 = PRODUCT_RELATED_PRODUCT_CATEGORY ( 'detail', '', ( #257 ) ) ;
#230 = CIRCLE ( 'NONE', #126, 2.475000000000000533 ) ;
#231 = LOCAL_TIME ( 9, 22, 7.000000000000000000, #155 ) ;
#232 = ORIENTED_EDGE ( 'NONE', *, *, #117, .F. ) ;
#233 = ORIENTED_EDGE ( 'NONE', *, *, #47, .T. ) ;
#234 = EDGE_CURVE ( 'NONE', #189, #258, #64, .T. ) ;
#235 = PERSON_AND_ORGANIZATION ( #239, #327 ) ;
#236 = ORIENTED_EDGE ( 'NONE', *, *, #47, .F. ) ;
#237 = ORIENTED_EDGE ( 'NONE', *, *, #187, .F. ) ;
#238 = AXIS2_PLACEMENT_3D ( 'NONE', #171, #283, #154 ) ;
#239 = PERSON ( 'UNSPECIFIED', 'UNSPECIFIED', 'UNSPECIFIED', ('UNSPECIFIED'), ('UNSPECIFIED'), ('UNSPECIFIED') ) ;
#240 = EDGE_CURVE ( 'NONE', #192, #228, #219, .T. ) ;
#241 = CARTESIAN_POINT ( 'NONE',  ( 2.158714565863737489E-13, -1.975000000000008971, 62.00000000000000000 ) ) ;
#242 = CARTESIAN_POINT ( 'NONE',  ( 6.982962677686266711E-14, 2.474999999999993427, 20.00000000000000000 ) ) ;
#243 = ORIENTED_EDGE ( 'NONE', *, *, #290, .T. ) ;
#244 = DIRECTION ( 'NONE',  ( 4.275831445896958607E-31, 1.000000000000000000, 1.224646799147353207E-16 ) ) ;
#245 = CYLINDRICAL_SURFACE ( 'NONE', #11, 2.474999999999994760 ) ;
#246 = AXIS2_PLACEMENT_3D ( 'NONE', #180, #288, #264 ) ;
#247 = CARTESIAN_POINT ( 'NONE',  ( 2.164718430082742680E-13, -7.592810154713590230E-15, 62.00000000000000000 ) ) ;
#248 = DIRECTION ( 'NONE',  ( 4.275831445896958607E-31, 1.000000000000000000, 1.224646799147352961E-16 ) ) ;
#249 = DIRECTION ( 'NONE',  ( 3.491481338843133355E-15, -1.224646799147353207E-16, 1.000000000000000000 ) ) ;
#250 = DIRECTION ( 'NONE',  ( 3.491481338843133355E-15, -1.224646799147353207E-16, 1.000000000000000000 ) ) ;
#251 = DIRECTION ( 'NONE',  ( 0.0000000000000000000, 1.000000000000000000, 0.0000000000000000000 ) ) ;
#252 =( NAMED_UNIT ( * ) SI_UNIT ( $, .STERADIAN. ) SOLID_ANGLE_UNIT ( ) );
#253 = CIRCLE ( 'NONE', #106, 2.474999999999995648 ) ;
#254 = PERSON_AND_ORGANIZATION ( #239, #327 ) ;
#255 = ORIENTED_EDGE ( 'NONE', *, *, #157, .F. ) ;
#256 = ADVANCED_BREP_SHAPE_REPRESENTATION ( '39997', ( #275, #158, #190 ), #140 ) ;
#257 = PRODUCT ( '39997', '39997', '', ( #46 ) ) ;
#258 = VERTEX_POINT ( 'NONE', #269 ) ;
#259 = CC_DESIGN_PERSON_AND_ORGANIZATION_ASSIGNMENT ( #235, #40, ( #102 ) ) ;
#260 = ORIENTED_EDGE ( 'NONE', *, *, #196, .F. ) ;
#261 = CARTESIAN_POINT ( 'NONE',  ( 5.192286755486682609E-15, -1.821209033718867892E-16, 1.487130032093224363 ) ) ;
#262 = CARTESIAN_POINT ( 'NONE',  ( 5.192286755486682609E-15, -1.821209033718867892E-16, 1.487130032093224363 ) ) ;
#263 = ORIENTED_EDGE ( 'NONE', *, *, #117, .T. ) ;
#264 = DIRECTION ( 'NONE',  ( 0.0000000000000000000, 1.000000000000000000, 0.0000000000000000000 ) ) ;
#265 = EDGE_CURVE ( 'NONE', #258, #55, #45, .T. ) ;
#266 = CARTESIAN_POINT ( 'NONE',  ( 6.982962677686266711E-14, 2.474999999999993427, 20.00000000000000000 ) ) ;
#267 = AXIS2_PLACEMENT_3D ( 'NONE', #50, #249, #278 ) ;
#268 = VERTEX_POINT ( 'NONE', #94 ) ;
#269 = CARTESIAN_POINT ( 'NONE',  ( 1.425809646406464997E-13, -2.475000000000008082, 61.50000000000000000 ) ) ;
#270 = PERSON_AND_ORGANIZATION_ROLE ( 'classification_officer' ) ;
#271 = VECTOR ( 'NONE', #310, 1000.000000000000000 ) ;
#272 = PLANE ( 'NONE',  #267 ) ;
#273 = CARTESIAN_POINT ( 'NONE',  ( 0.0000000000000000000, 0.0000000000000000000, 0.0000000000000000000 ) ) ;
#274 = CARTESIAN_POINT ( 'NONE',  ( 0.0000000000000000000, 0.0000000000000000000, 0.0000000000000000000 ) ) ;
#275 = MANIFOLD_SOLID_BREP ( 'Corps-Déplacer/Copier1[1]', #101 ) ;
#276 = CARTESIAN_POINT ( 'NONE',  ( 2.164718430082742680E-13, 1.974999999999993205, 62.00000000000000000 ) ) ;
#277 = FACE_OUTER_BOUND ( 'NONE', #9, .T. ) ;
#278 = DIRECTION ( 'NONE',  ( -4.275831445896958607E-31, -1.000000000000000000, -1.224646799147353207E-16 ) ) ;
#279 = CARTESIAN_POINT ( 'NONE',  ( 2.147261023388527077E-13, -7.531577814756222656E-15, 61.50000000000000000 ) ) ;
#280 = APPROVAL_ROLE ( '' ) ;
#281 = CC_DESIGN_DATE_AND_TIME_ASSIGNMENT ( #336, #172, ( #92 ) ) ;
#282 = APPLICATION_CONTEXT ( 'configuration controlled 3d designs of mechanical parts and assemblies' ) ;
#283 = DIRECTION ( 'NONE',  ( -3.491481338843133355E-15, 1.224646799147353207E-16, -1.000000000000000000 ) ) ;
#284 = ORIENTED_EDGE ( 'NONE', *, *, #37, .T. ) ;
#285 = CIRCLE ( 'NONE', #135, 2.474999999999995648 ) ;
#286 = DIRECTION ( 'NONE',  ( 0.0000000000000000000, 1.000000000000000000, 0.0000000000000000000 ) ) ;
#287 = FACE_OUTER_BOUND ( 'NONE', #13, .T. ) ;
#288 = DIRECTION ( 'NONE',  ( -3.491481338843133355E-15, 1.224646799147353207E-16, -1.000000000000000000 ) ) ;
#289 = DIRECTION ( 'NONE',  ( -3.491481338843133355E-15, 1.224646799147353207E-16, -1.000000000000000000 ) ) ;
#290 = EDGE_CURVE ( 'NONE', #189, #192, #48, .T. ) ;
#291 = CALENDAR_DATE ( 2021, 3, 9 ) ;
#292 = ORIENTED_EDGE ( 'NONE', *, *, #265, .F. ) ;
#293 =( LENGTH_UNIT ( ) NAMED_UNIT ( * ) SI_UNIT ( .MILLI., .METRE. ) );
#294 = ADVANCED_FACE ( 'NONE', ( #334 ), #272, .F. ) ;
#295 = AXIS2_PLACEMENT_3D ( 'NONE', #25, #79, #59 ) ;
#296 = ORIENTED_EDGE ( 'NONE', *, *, #14, .F. ) ;
#297 = LINE ( 'NONE', #20, #36 ) ;
#298 = EDGE_LOOP ( 'NONE', ( #178, #156, #260, #223 ) ) ;
#299 = VECTOR ( 'NONE', #98, 1000.000000000000000 ) ;
#300 = EDGE_CURVE ( 'NONE', #306, #42, #131, .T. ) ;
#301 = ORIENTED_EDGE ( 'NONE', *, *, #307, .F. ) ;
#302 = CARTESIAN_POINT ( 'NONE',  ( 6.982962677686266711E-14, 1.855952731044041811E-32, 20.00000000000000000 ) ) ;
#303 = APPROVAL_DATE_TIME ( #2, #39 ) ;
#304 = EDGE_LOOP ( 'NONE', ( #149, #202 ) ) ;
#305 = DIRECTION ( 'NONE',  ( -4.275831445896958607E-31, -1.000000000000000000, -1.224646799147353207E-16 ) ) ;
#306 = VERTEX_POINT ( 'NONE', #206 ) ;
#307 = EDGE_CURVE ( 'NONE', #192, #189, #168, .T. ) ;
#308 = CARTESIAN_POINT ( 'NONE',  ( 6.982962677686266711E-14, -2.449293598294706513E-15, 20.00000000000000000 ) ) ;
#309 = EDGE_LOOP ( 'NONE', ( #301, #183 ) ) ;
#310 = DIRECTION ( 'NONE',  ( 1.798245827342160317E-15, -0.8571673007021098911, 0.5150380749100582634 ) ) ;
#311 = DIRECTION ( 'NONE',  ( -3.491481338843133355E-15, 1.224646799147353207E-16, -1.000000000000000000 ) ) ;
#312 = FACE_OUTER_BOUND ( 'NONE', #29, .T. ) ;
#313 = AXIS2_PLACEMENT_3D ( 'NONE', #175, #75, #129 ) ;
#314 = DIRECTION ( 'NONE',  ( 4.275831445896958607E-31, 1.000000000000000000, 1.224646799147353207E-16 ) ) ;
#315 = CC_DESIGN_APPROVAL ( #51, ( #102 ) ) ;
#316 = ADVANCED_FACE ( 'NONE', ( #27 ), #95, .T. ) ;
#317 = ORIENTED_EDGE ( 'NONE', *, *, #234, .F. ) ;
#318 = ORIENTED_EDGE ( 'NONE', *, *, #326, .T. ) ;
#319 = SECURITY_CLASSIFICATION_LEVEL ( 'unclassified' ) ;
#320 = DATE_AND_TIME ( #291, #121 ) ;
#321 = CC_DESIGN_PERSON_AND_ORGANIZATION_ASSIGNMENT ( #254, #66, ( #102 ) ) ;
#322 = PERSON_AND_ORGANIZATION ( #239, #327 ) ;
#323 = DIRECTION ( 'NONE',  ( 1.000000000000000000, 0.0000000000000000000, 0.0000000000000000000 ) ) ;
#324 = CARTESIAN_POINT ( 'NONE',  ( 6.982962677686266711E-14, -2.449293598294706513E-15, 20.00000000000000000 ) ) ;
#325 = AXIS2_PLACEMENT_3D ( 'NONE', #124, #224, #99 ) ;
#326 = EDGE_CURVE ( 'NONE', #109, #122, #285, .T. ) ;
#327 = ORGANIZATION ( 'UNSPECIFIED', 'UNSPECIFIED', '' ) ;
#328 = CARTESIAN_POINT ( 'NONE',  ( 0.0000000000000000000, 0.0000000000000000000, 0.0000000000000000000 ) ) ;
#329 = UNCERTAINTY_MEASURE_WITH_UNIT (LENGTH_MEASURE( 1.000000000000000082E-05 ), #293, 'distance_accuracy_value', 'NONE');
#330 = DIRECTION ( 'NONE',  ( 0.0000000000000000000, 1.000000000000000000, 0.0000000000000000000 ) ) ;
#331 = CARTESIAN_POINT ( 'NONE',  ( 3.781405684896360593E-14, -2.474999999999998312, 20.00000000000000000 ) ) ;
#332 = CIRCLE ( 'NONE', #120, 2.475000000000000533 ) ;
#333 = PERSON_AND_ORGANIZATION_ROLE ( 'design_owner' ) ;
#334 = FACE_OUTER_BOUND ( 'NONE', #57, .T. ) ;
#335 = CARTESIAN_POINT ( 'NONE',  ( 5.192286755486681820E-15, -2.474999999999993427, 1.487130032093224141 ) ) ;
#336 = DATE_AND_TIME ( #31, #214 ) ;
#337 = CARTESIAN_POINT ( 'NONE',  ( 2.164718430082742680E-13, 1.974999999999993205, 62.00000000000000000 ) ) ;
ENDSEC;
END-ISO-10303-21;
