ISO-10303-21;
HEADER;
FILE_DESCRIPTION (( 'STEP AP203' ),
    '1' );
FILE_NAME ('39954.step',
    '2021-11-17T10:13:23',
    ( '' ),
    ( '' ),
    'SwSTEP 2.0',
    'SolidWorks 2019',
    '' );
FILE_SCHEMA (( 'CONFIG_CONTROL_DESIGN' ));
ENDSEC;

DATA;
#1 = PERSON_AND_ORGANIZATION ( #221, #66 ) ;
#2 = CC_DESIGN_PERSON_AND_ORGANIZATION_ASSIGNMENT ( #172, #174, ( #149 ) ) ;
#3 = CC_DESIGN_SECURITY_CLASSIFICATION ( #76, ( #149 ) ) ;
#4 = PERSON_AND_ORGANIZATION_ROLE ( 'classification_officer' ) ;
#5 = COORDINATED_UNIVERSAL_TIME_OFFSET ( 1, 0, .AHEAD. ) ;
#6 = ADVANCED_FACE ( 'NONE', ( #37 ), #59, .T. ) ;
#7 = COORDINATED_UNIVERSAL_TIME_OFFSET ( 1, 0, .AHEAD. ) ;
#8 = APPLICATION_CONTEXT ( 'configuration controlled 3d designs of mechanical parts and assemblies' ) ;
#9 = CC_DESIGN_PERSON_AND_ORGANIZATION_ASSIGNMENT ( #84, #139, ( #141 ) ) ;
#10 = ORIENTED_EDGE ( 'NONE', *, *, #61, .F. ) ;
#11 = FACE_BOUND ( 'NONE', #198, .T. ) ;
#12 = AXIS2_PLACEMENT_3D ( 'NONE', #101, #133, #114 ) ;
#13 = AXIS2_PLACEMENT_3D ( 'NONE', #138, #39, #194 ) ;
#14 = PRODUCT ( '39954', '39954', '', ( #104 ) ) ;
#15 = DIRECTION ( 'NONE',  ( -4.275831445896958607E-31, -1.000000000000000000, -1.224646799147353207E-16 ) ) ;
#16 = ADVANCED_BREP_SHAPE_REPRESENTATION ( '39954', ( #30, #25, #53 ), #111 ) ;
#17 = DIRECTION ( 'NONE',  ( 4.275831445896958607E-31, 1.000000000000000000, 1.224646799147353207E-16 ) ) ;
#18 = DIRECTION ( 'NONE',  ( 0.0000000000000000000, 1.000000000000000000, 0.0000000000000000000 ) ) ;
#19 = LOCAL_TIME ( 11, 13, 23.00000000000000000, #48 ) ;
#20 = FACE_OUTER_BOUND ( 'NONE', #223, .T. ) ;
#21 = DATE_AND_TIME ( #151, #220 ) ;
#22 = VERTEX_POINT ( 'NONE', #100 ) ;
#23 = PERSON_AND_ORGANIZATION_ROLE ( 'design_owner' ) ;
#24 = DIRECTION ( 'NONE',  ( 1.000000000000000000, 0.0000000000000000000, 0.0000000000000000000 ) ) ;
#25 = MANIFOLD_SOLID_BREP ( 'Corps-Déplacer/Copier1[2]', #229 ) ;
#26 = CIRCLE ( 'NONE', #63, 4.500000000000000888 ) ;
#27 = PLANE ( 'NONE',  #12 ) ;
#28 = CALENDAR_DATE ( 2021, 17, 11 ) ;
#29 =( NAMED_UNIT ( * ) SI_UNIT ( $, .STERADIAN. ) SOLID_ANGLE_UNIT ( ) );
#30 = MANIFOLD_SOLID_BREP ( 'Corps-Déplacer/Copier1[1]', #46 ) ;
#31 = CIRCLE ( 'NONE', #90, 3.999999999999998224 ) ;
#32 = ORIENTED_EDGE ( 'NONE', *, *, #40, .T. ) ;
#33 = LOCAL_TIME ( 11, 13, 23.00000000000000000, #7 ) ;
#34 = ORIENTED_EDGE ( 'NONE', *, *, #43, .F. ) ;
#35 = DIRECTION ( 'NONE',  ( 3.491481338843133355E-15, -0.0000000000000000000, 1.000000000000000000 ) ) ;
#36 = FACE_OUTER_BOUND ( 'NONE', #54, .T. ) ;
#37 = FACE_OUTER_BOUND ( 'NONE', #195, .T. ) ;
#38 = DIRECTION ( 'NONE',  ( -4.333342374871280669E-31, -1.000000000000000000, -1.219727444046192488E-16 ) ) ;
#39 = DIRECTION ( 'NONE',  ( -3.491481338843133355E-15, 1.224646799147353207E-16, -1.000000000000000000 ) ) ;
#40 = EDGE_CURVE ( 'NONE', #22, #22, #31, .T. ) ;
#41 = CARTESIAN_POINT ( 'NONE',  ( 2.496409157272840412E-13, 4.999999999999990230, 71.50000000000000000 ) ) ;
#42 = CALENDAR_DATE ( 2021, 17, 11 ) ;
#43 = EDGE_CURVE ( 'NONE', #167, #167, #237, .T. ) ;
#44 =( NAMED_UNIT ( * ) PLANE_ANGLE_UNIT ( ) SI_UNIT ( $, .RADIAN. ) );
#45 = APPROVAL_DATE_TIME ( #83, #161 ) ;
#46 = CLOSED_SHELL ( 'NONE', ( #179, #94, #177, #52, #56 ) ) ;
#47 =( LENGTH_UNIT ( ) NAMED_UNIT ( * ) SI_UNIT ( .MILLI., .METRE. ) );
#48 = COORDINATED_UNIVERSAL_TIME_OFFSET ( 1, 0, .AHEAD. ) ;
#49 = EDGE_LOOP ( 'NONE', ( #106 ) ) ;
#50 = PERSON_AND_ORGANIZATION ( #221, #66 ) ;
#51 = EDGE_LOOP ( 'NONE', ( #199 ) ) ;
#52 = ADVANCED_FACE ( 'NONE', ( #97, #222 ), #142, .F. ) ;
#53 = AXIS2_PLACEMENT_3D ( 'NONE', #190, #168, #24 ) ;
#54 = EDGE_LOOP ( 'NONE', ( #178 ) ) ;
#55 = EDGE_LOOP ( 'NONE', ( #121 ) ) ;
#56 = ADVANCED_FACE ( 'NONE', ( #98 ), #64, .F. ) ;
#57 = DIRECTION ( 'NONE',  ( -4.333342374871280669E-31, -1.000000000000000000, -1.219727444046192488E-16 ) ) ;
#58 = AXIS2_PLACEMENT_3D ( 'NONE', #208, #157, #192 ) ;
#59 = PLANE ( 'NONE',  #159 ) ;
#60 = CARTESIAN_POINT ( 'NONE',  ( 5.586370142149013368E-14, 0.0000000000000000000, 16.00000000000000000 ) ) ;
#61 = EDGE_CURVE ( 'NONE', #81, #81, #26, .T. ) ;
#62 = CARTESIAN_POINT ( 'NONE',  ( 5.586370142149013368E-14, 0.0000000000000000000, 16.00000000000000000 ) ) ;
#63 = AXIS2_PLACEMENT_3D ( 'NONE', #242, #130, #18 ) ;
#64 = PLANE ( 'NONE',  #180 ) ;
#65 = CIRCLE ( 'NONE', #163, 3.999999999999998224 ) ;
#66 = ORGANIZATION ( 'UNSPECIFIED', 'UNSPECIFIED', '' ) ;
#67 = COORDINATED_UNIVERSAL_TIME_OFFSET ( 1, 0, .AHEAD. ) ;
#68 = VERTEX_POINT ( 'NONE', #135 ) ;
#69 = DATE_AND_TIME ( #219, #33 ) ;
#70 = CC_DESIGN_PERSON_AND_ORGANIZATION_ASSIGNMENT ( #1, #23, ( #14 ) ) ;
#71 = APPROVAL_DATE_TIME ( #21, #147 ) ;
#72 = APPROVAL_PERSON_ORGANIZATION ( #232, #210, #119 ) ;
#73 = ADVANCED_FACE ( 'NONE', ( #112 ), #184, .T. ) ;
#74 = CC_DESIGN_DATE_AND_TIME_ASSIGNMENT ( #103, #136, ( #141 ) ) ;
#75 = CARTESIAN_POINT ( 'NONE',  ( 6.982962677686225295E-16, -2.435834570415076443E-17, 0.1999999999999988176 ) ) ;
#76 = SECURITY_CLASSIFICATION ( '', '', #134 ) ;
#77 = CARTESIAN_POINT ( 'NONE',  ( 6.938615050042357760E-14, 0.0000000000000000000, 19.87298334620741969 ) ) ;
#78 = CC_DESIGN_PERSON_AND_ORGANIZATION_ASSIGNMENT ( #158, #153, ( #149 ) ) ;
#79 = DIRECTION ( 'NONE',  ( 1.000000000000000000, 0.0000000000000000000, -3.469446951953615767E-15 ) ) ;
#80 = CARTESIAN_POINT ( 'NONE',  ( 5.586370142149013368E-14, 3.749399456654641830E-32, 16.00000000000000000 ) ) ;
#81 = VERTEX_POINT ( 'NONE', #189 ) ;
#82 = APPROVAL_DATE_TIME ( #69, #210 ) ;
#83 = DATE_AND_TIME ( #28, #19 ) ;
#84 = PERSON_AND_ORGANIZATION ( #221, #66 ) ;
#85 = CALENDAR_DATE ( 2021, 17, 11 ) ;
#86 = ADVANCED_FACE ( 'NONE', ( #11, #240 ), #212, .T. ) ;
#87 = EDGE_LOOP ( 'NONE', ( #32 ) ) ;
#88 = ORIENTED_EDGE ( 'NONE', *, *, #43, .T. ) ;
#89 = EDGE_CURVE ( 'NONE', #68, #68, #191, .T. ) ;
#90 = AXIS2_PLACEMENT_3D ( 'NONE', #110, #165, #79 ) ;
#91 = ORIENTED_EDGE ( 'NONE', *, *, #200, .T. ) ;
#92 = EDGE_LOOP ( 'NONE', ( #164 ) ) ;
#93 = CARTESIAN_POINT ( 'NONE',  ( 6.982962677686225295E-16, -2.435834570415076443E-17, 0.1999999999999988176 ) ) ;
#94 = ADVANCED_FACE ( 'NONE', ( #187, #36 ), #152, .T. ) ;
#95 = AXIS2_PLACEMENT_3D ( 'NONE', #77, #148, #209 ) ;
#96 = CC_DESIGN_APPROVAL ( #161, ( #149 ) ) ;
#97 = FACE_OUTER_BOUND ( 'NONE', #92, .T. ) ;
#98 = FACE_OUTER_BOUND ( 'NONE', #143, .T. ) ;
#99 = AXIS2_PLACEMENT_3D ( 'NONE', #93, #241, #38 ) ;
#100 = CARTESIAN_POINT ( 'NONE',  ( 4.000000000000054179, 0.0000000000000000000, 15.99999999999998579 ) ) ;
#101 = CARTESIAN_POINT ( 'NONE',  ( 2.513866563967056016E-13, 3.374459510989167028E-32, 72.00000000000000000 ) ) ;
#102 = APPROVAL_STATUS ( 'not_yet_approved' ) ;
#103 = DATE_AND_TIME ( #42, #181 ) ;
#104 = MECHANICAL_CONTEXT ( 'NONE', #8, 'mechanical' ) ;
#105 = ORIENTED_EDGE ( 'NONE', *, *, #89, .T. ) ;
#106 = ORIENTED_EDGE ( 'NONE', *, *, #107, .F. ) ;
#107 = EDGE_CURVE ( 'NONE', #116, #116, #65, .T. ) ;
#108 = DIRECTION ( 'NONE',  ( 3.491481338843133355E-15, -1.224646799147353207E-16, 1.000000000000000000 ) ) ;
#109 = DIRECTION ( 'NONE',  ( -4.275831445896958607E-31, -1.000000000000000000, -1.224646799147353207E-16 ) ) ;
#110 = CARTESIAN_POINT ( 'NONE',  ( 5.586370142149013368E-14, 0.0000000000000000000, 16.00000000000000000 ) ) ;
#111 =( GEOMETRIC_REPRESENTATION_CONTEXT ( 3 ) GLOBAL_UNCERTAINTY_ASSIGNED_CONTEXT ( ( #183 ) ) GLOBAL_UNIT_ASSIGNED_CONTEXT ( ( #47, #44, #29 ) ) REPRESENTATION_CONTEXT ( 'NONE', 'WORKASPACE' ) );
#112 = FACE_OUTER_BOUND ( 'NONE', #51, .T. ) ;
#113 = FACE_OUTER_BOUND ( 'NONE', #182, .T. ) ;
#114 = DIRECTION ( 'NONE',  ( 4.275831445896958607E-31, 1.000000000000000000, 1.224646799147353207E-16 ) ) ;
#115 = APPROVAL_STATUS ( 'not_yet_approved' ) ;
#116 = VERTEX_POINT ( 'NONE', #230 ) ;
#117 = APPROVAL_STATUS ( 'not_yet_approved' ) ;
#118 = AXIS2_PLACEMENT_3D ( 'NONE', #145, #186, #225 ) ;
#119 = APPROVAL_ROLE ( '' ) ;
#120 = CC_DESIGN_PERSON_AND_ORGANIZATION_ASSIGNMENT ( #236, #4, ( #76 ) ) ;
#121 = ORIENTED_EDGE ( 'NONE', *, *, #137, .T. ) ;
#122 = CYLINDRICAL_SURFACE ( 'NONE', #58, 4.000000000000000000 ) ;
#123 = ORIENTED_EDGE ( 'NONE', *, *, #61, .T. ) ;
#124 = ORIENTED_EDGE ( 'NONE', *, *, #137, .F. ) ;
#125 = CIRCLE ( 'NONE', #13, 4.999999999999999112 ) ;
#126 = FACE_OUTER_BOUND ( 'NONE', #49, .T. ) ;
#127 = DIRECTION ( 'NONE',  ( 1.000000000000000000, 0.0000000000000000000, -3.469446951953615767E-15 ) ) ;
#128 = AXIS2_PLACEMENT_3D ( 'NONE', #62, #35, #206 ) ;
#129 = DIRECTION ( 'NONE',  ( 3.491481338843133355E-15, -1.224646799147353207E-16, 1.000000000000000000 ) ) ;
#130 = DIRECTION ( 'NONE',  ( -3.491481338843133355E-15, 1.224646799147353207E-16, -1.000000000000000000 ) ) ;
#131 = FACE_OUTER_BOUND ( 'NONE', #218, .T. ) ;
#132 = VERTEX_POINT ( 'NONE', #41 ) ;
#133 = DIRECTION ( 'NONE',  ( -3.491481338843133355E-15, 1.224646799147353207E-16, -1.000000000000000000 ) ) ;
#134 = SECURITY_CLASSIFICATION_LEVEL ( 'unclassified' ) ;
#135 = CARTESIAN_POINT ( 'NONE',  ( -4.999999999999929834, 0.0000000000000000000, 19.87298334620743745 ) ) ;
#136 = DATE_TIME_ROLE ( 'creation_date' ) ;
#137 = EDGE_CURVE ( 'NONE', #216, #216, #235, .T. ) ;
#138 = CARTESIAN_POINT ( 'NONE',  ( 2.496409157272840412E-13, -8.756224613903574137E-15, 71.50000000000000000 ) ) ;
#139 = PERSON_AND_ORGANIZATION_ROLE ( 'creator' ) ;
#140 = DIRECTION ( 'NONE',  ( 3.491481338843133355E-15, -1.217917285207545432E-16, 1.000000000000000000 ) ) ;
#141 = PRODUCT_DEFINITION ( 'UNKNOWN', '', #149, #144 ) ;
#142 = TOROIDAL_SURFACE ( 'NONE', #128, 11.99999999999999645, 8.000000000000000000 ) ;
#143 = EDGE_LOOP ( 'NONE', ( #207 ) ) ;
#144 = DESIGN_CONTEXT ( 'detailed design', #176, 'design' ) ;
#145 = CARTESIAN_POINT ( 'NONE',  ( 2.496409157272840412E-13, -8.756224613903574137E-15, 71.50000000000000000 ) ) ;
#146 = DIRECTION ( 'NONE',  ( 3.491481338843133355E-15, -1.217917285207545432E-16, 1.000000000000000000 ) ) ;
#147 = APPROVAL ( #115, 'UNSPECIFIED' ) ;
#148 = DIRECTION ( 'NONE',  ( 3.491481338843133355E-15, -0.0000000000000000000, 1.000000000000000000 ) ) ;
#149 = PRODUCT_DEFINITION_FORMATION_WITH_SPECIFIED_SOURCE ( 'ANY', '', #14, .NOT_KNOWN. ) ;
#150 = CARTESIAN_POINT ( 'NONE',  ( 6.982962677686207546E-16, -4.000000000000000000, 0.1999999999999983180 ) ) ;
#151 = CALENDAR_DATE ( 2021, 17, 11 ) ;
#152 = CONICAL_SURFACE ( 'NONE', #118, 4.999999999999999112, 0.7853981633974466137 ) ;
#153 = PERSON_AND_ORGANIZATION_ROLE ( 'design_supplier' ) ;
#154 = CC_DESIGN_APPROVAL ( #210, ( #141 ) ) ;
#155 = ADVANCED_FACE ( 'NONE', ( #126, #203 ), #122, .T. ) ;
#156 = DATE_TIME_ROLE ( 'classification_date' ) ;
#157 = DIRECTION ( 'NONE',  ( 3.491481338843133355E-15, -0.0000000000000000000, 1.000000000000000000 ) ) ;
#158 = PERSON_AND_ORGANIZATION ( #221, #66 ) ;
#159 = AXIS2_PLACEMENT_3D ( 'NONE', #227, #228, #17 ) ;
#160 = EDGE_LOOP ( 'NONE', ( #123 ) ) ;
#161 = APPROVAL ( #117, 'UNSPECIFIED' ) ;
#162 = DIRECTION ( 'NONE',  ( -4.252335473556634944E-31, -1.000000000000000000, -1.217917285207545432E-16 ) ) ;
#163 = AXIS2_PLACEMENT_3D ( 'NONE', #60, #239, #127 ) ;
#164 = ORIENTED_EDGE ( 'NONE', *, *, #89, .F. ) ;
#165 = DIRECTION ( 'NONE',  ( 3.491481338843133355E-15, -0.0000000000000000000, 1.000000000000000000 ) ) ;
#166 = CARTESIAN_POINT ( 'NONE',  ( 5.586370142149013368E-14, 3.749399456654641830E-32, 16.00000000000000000 ) ) ;
#167 = VERTEX_POINT ( 'NONE', #233 ) ;
#168 = DIRECTION ( 'NONE',  ( 0.0000000000000000000, 0.0000000000000000000, 1.000000000000000000 ) ) ;
#169 = DIRECTION ( 'NONE',  ( -3.491481338843133355E-15, 1.224646799147353207E-16, -1.000000000000000000 ) ) ;
#170 = APPROVAL_ROLE ( '' ) ;
#171 = LOCAL_TIME ( 11, 13, 23.00000000000000000, #5 ) ;
#172 = PERSON_AND_ORGANIZATION ( #221, #66 ) ;
#173 = CYLINDRICAL_SURFACE ( 'NONE', #197, 4.999999999999999112 ) ;
#174 = PERSON_AND_ORGANIZATION_ROLE ( 'creator' ) ;
#175 = CC_DESIGN_APPROVAL ( #147, ( #76 ) ) ;
#176 = APPLICATION_CONTEXT ( 'configuration controlled 3d designs of mechanical parts and assemblies' ) ;
#177 = ADVANCED_FACE ( 'NONE', ( #113 ), #27, .F. ) ;
#178 = ORIENTED_EDGE ( 'NONE', *, *, #200, .F. ) ;
#179 = ADVANCED_FACE ( 'NONE', ( #20, #131 ), #173, .T. ) ;
#180 = AXIS2_PLACEMENT_3D ( 'NONE', #166, #108, #109 ) ;
#181 = LOCAL_TIME ( 11, 13, 23.00000000000000000, #193 ) ;
#182 = EDGE_LOOP ( 'NONE', ( #10 ) ) ;
#183 = UNCERTAINTY_MEASURE_WITH_UNIT (LENGTH_MEASURE( 1.000000000000000082E-05 ), #47, 'distance_accuracy_value', 'NONE');
#184 = PLANE ( 'NONE',  #201 ) ;
#185 = APPROVAL_PERSON_ORGANIZATION ( #231, #147, #234 ) ;
#186 = DIRECTION ( 'NONE',  ( -3.491481338843133355E-15, 1.224646799147353207E-16, -1.000000000000000000 ) ) ;
#187 = FACE_BOUND ( 'NONE', #160, .T. ) ;
#188 = DATE_AND_TIME ( #85, #171 ) ;
#189 = CARTESIAN_POINT ( 'NONE',  ( 2.513866563967056016E-13, 4.499999999999992006, 72.00000000000000000 ) ) ;
#190 = CARTESIAN_POINT ( 'NONE',  ( 0.0000000000000000000, 0.0000000000000000000, 0.0000000000000000000 ) ) ;
#191 = CIRCLE ( 'NONE', #95, 4.999999999999999112 ) ;
#192 = DIRECTION ( 'NONE',  ( 1.000000000000000000, 0.0000000000000000000, -3.491481338843133355E-15 ) ) ;
#193 = COORDINATED_UNIVERSAL_TIME_OFFSET ( 1, 0, .AHEAD. ) ;
#194 = DIRECTION ( 'NONE',  ( 0.0000000000000000000, 1.000000000000000000, 0.0000000000000000000 ) ) ;
#195 = EDGE_LOOP ( 'NONE', ( #34 ) ) ;
#196 = AXIS2_PLACEMENT_3D ( 'NONE', #75, #140, #57 ) ;
#197 = AXIS2_PLACEMENT_3D ( 'NONE', #213, #169, #211 ) ;
#198 = EDGE_LOOP ( 'NONE', ( #88 ) ) ;
#199 = ORIENTED_EDGE ( 'NONE', *, *, #107, .T. ) ;
#200 = EDGE_CURVE ( 'NONE', #132, #132, #125, .T. ) ;
#201 = AXIS2_PLACEMENT_3D ( 'NONE', #80, #129, #15 ) ;
#202 = APPROVAL_PERSON_ORGANIZATION ( #50, #161, #170 ) ;
#203 = FACE_OUTER_BOUND ( 'NONE', #55, .T. ) ;
#204 = CARTESIAN_POINT ( 'NONE',  ( -1.615887479951521103E-30, 5.636625551707806507E-32, -4.628085683788671558E-16 ) ) ;
#205 = CC_DESIGN_DATE_AND_TIME_ASSIGNMENT ( #188, #156, ( #76 ) ) ;
#206 = DIRECTION ( 'NONE',  ( 1.000000000000000000, 0.0000000000000000000, -3.491481338843133355E-15 ) ) ;
#207 = ORIENTED_EDGE ( 'NONE', *, *, #40, .F. ) ;
#208 = CARTESIAN_POINT ( 'NONE',  ( -6.413747168845438786E-31, 0.0000000000000000000, -1.836970198721029934E-16 ) ) ;
#209 = DIRECTION ( 'NONE',  ( -1.000000000000000000, 0.0000000000000000000, 3.469446951953614978E-15 ) ) ;
#210 = APPROVAL ( #102, 'UNSPECIFIED' ) ;
#211 = DIRECTION ( 'NONE',  ( 4.275831445896958607E-31, 1.000000000000000000, 1.224646799147353207E-16 ) ) ;
#212 = CONICAL_SURFACE ( 'NONE', #99, 4.000000000000000000, 0.7853981633974513876 ) ;
#213 = CARTESIAN_POINT ( 'NONE',  ( 0.0000000000000000000, 0.0000000000000000000, 0.0000000000000000000 ) ) ;
#214 = APPLICATION_PROTOCOL_DEFINITION ( 'international standard', 'config_control_design', 1994, #176 ) ;
#215 = APPLICATION_PROTOCOL_DEFINITION ( 'international standard', 'config_control_design', 1994, #8 ) ;
#216 = VERTEX_POINT ( 'NONE', #150 ) ;
#217 = SHAPE_DEFINITION_REPRESENTATION ( #226, #16 ) ;
#218 = EDGE_LOOP ( 'NONE', ( #105 ) ) ;
#219 = CALENDAR_DATE ( 2021, 17, 11 ) ;
#220 = LOCAL_TIME ( 11, 13, 23.00000000000000000, #67 ) ;
#221 = PERSON ( 'UNSPECIFIED', 'UNSPECIFIED', 'UNSPECIFIED', ('UNSPECIFIED'), ('UNSPECIFIED'), ('UNSPECIFIED') ) ;
#222 = FACE_OUTER_BOUND ( 'NONE', #87, .T. ) ;
#223 = EDGE_LOOP ( 'NONE', ( #91 ) ) ;
#224 = PRODUCT_RELATED_PRODUCT_CATEGORY ( 'detail', '', ( #14 ) ) ;
#225 = DIRECTION ( 'NONE',  ( 0.0000000000000000000, 1.000000000000000000, 0.0000000000000000000 ) ) ;
#226 = PRODUCT_DEFINITION_SHAPE ( 'NONE', 'NONE',  #141 ) ;
#227 = CARTESIAN_POINT ( 'NONE',  ( -1.068957861474239564E-30, 3.749399456654644020E-32, -3.061616997868383141E-16 ) ) ;
#228 = DIRECTION ( 'NONE',  ( -3.491481338843133355E-15, 1.224646799147353207E-16, -1.000000000000000000 ) ) ;
#229 = CLOSED_SHELL ( 'NONE', ( #155, #73, #86, #6 ) ) ;
#230 = CARTESIAN_POINT ( 'NONE',  ( 4.000000000000054179, 0.0000000000000000000, 15.99999999999998579 ) ) ;
#231 = PERSON_AND_ORGANIZATION ( #221, #66 ) ;
#232 = PERSON_AND_ORGANIZATION ( #221, #66 ) ;
#233 = CARTESIAN_POINT ( 'NONE',  ( -3.231774959903042207E-30, -3.799999999999999378, -9.256171367577343117E-16 ) ) ;
#234 = APPROVAL_ROLE ( '' ) ;
#235 = CIRCLE ( 'NONE', #196, 4.000000000000000000 ) ;
#236 = PERSON_AND_ORGANIZATION ( #221, #66 ) ;
#237 = CIRCLE ( 'NONE', #243, 3.799999999999999378 ) ;
#238 = EDGE_LOOP ( 'NONE', ( #124 ) ) ;
#239 = DIRECTION ( 'NONE',  ( 3.491481338843133355E-15, -0.0000000000000000000, 1.000000000000000000 ) ) ;
#240 = FACE_OUTER_BOUND ( 'NONE', #238, .T. ) ;
#241 = DIRECTION ( 'NONE',  ( 3.491481338843133355E-15, -1.217917285207545432E-16, 1.000000000000000000 ) ) ;
#242 = CARTESIAN_POINT ( 'NONE',  ( 2.513866563967056016E-13, -8.817456953860941711E-15, 72.00000000000000000 ) ) ;
#243 = AXIS2_PLACEMENT_3D ( 'NONE', #204, #146, #162 ) ;
ENDSEC;
END-ISO-10303-21;
