ISO-10303-21;
HEADER;
FILE_DESCRIPTION (( 'STEP AP203' ),
    '1' );
FILE_NAME ('39946.step',
    '2021-11-15T14:31:26',
    ( '' ),
    ( '' ),
    'SwSTEP 2.0',
    'SolidWorks 2019',
    '' );
FILE_SCHEMA (( 'CONFIG_CONTROL_DESIGN' ));
ENDSEC;

DATA;
#1 = ADVANCED_FACE ( 'NONE', ( #167 ), #53, .F. ) ;
#2 = DIRECTION ( 'NONE',  ( -3.491481338843133355E-15, 1.224646799147353207E-16, -1.000000000000000000 ) ) ;
#3 = ADVANCED_FACE ( 'NONE', ( #88 ), #150, .T. ) ;
#4 = COORDINATED_UNIVERSAL_TIME_OFFSET ( 1, 0, .AHEAD. ) ;
#5 = ADVANCED_FACE ( 'NONE', ( #136, #137 ), #122, .T. ) ;
#6 = MECHANICAL_CONTEXT ( 'NONE', #62, 'mechanical' ) ;
#7 = CALENDAR_DATE ( 2021, 15, 11 ) ;
#8 = VERTEX_POINT ( 'NONE', #61 ) ;
#9 = MANIFOLD_SOLID_BREP ( 'Corps-Déplacer/Copier1[1]', #171 ) ;
#10 = FACE_OUTER_BOUND ( 'NONE', #83, .T. ) ;
#11 = AXIS2_PLACEMENT_3D ( 'NONE', #87, #190, #186 ) ;
#12 = CC_DESIGN_PERSON_AND_ORGANIZATION_ASSIGNMENT ( #138, #77, ( #91 ) ) ;
#13 = PLANE ( 'NONE',  #22 ) ;
#14 = APPROVAL_ROLE ( '' ) ;
#15 = PRODUCT ( '39946', '39946', '', ( #6 ) ) ;
#16 = APPLICATION_PROTOCOL_DEFINITION ( 'international standard', 'config_control_design', 1994, #62 ) ;
#17 = ORIENTED_EDGE ( 'NONE', *, *, #194, .T. ) ;
#18 = VERTEX_POINT ( 'NONE', #72 ) ;
#19 = PERSON_AND_ORGANIZATION ( #69, #172 ) ;
#20 = CC_DESIGN_SECURITY_CLASSIFICATION ( #91, ( #178 ) ) ;
#21 = ADVANCED_FACE ( 'NONE', ( #10 ), #121, .F. ) ;
#22 = AXIS2_PLACEMENT_3D ( 'NONE', #189, #149, #187 ) ;
#23 = APPROVAL_PERSON_ORGANIZATION ( #159, #188, #14 ) ;
#24 = ADVANCED_FACE ( 'NONE', ( #75 ), #13, .F. ) ;
#25 = LOCAL_TIME ( 15, 31, 26.00000000000000000, #200 ) ;
#26 = DATE_AND_TIME ( #99, #49 ) ;
#27 = DIRECTION ( 'NONE',  ( 0.0000000000000000000, 1.000000000000000000, 0.0000000000000000000 ) ) ;
#28 = EDGE_LOOP ( 'NONE', ( #58 ) ) ;
#29 = SECURITY_CLASSIFICATION_LEVEL ( 'unclassified' ) ;
#30 = FACE_OUTER_BOUND ( 'NONE', #28, .T. ) ;
#31 = APPROVAL_STATUS ( 'not_yet_approved' ) ;
#32 = PERSON_AND_ORGANIZATION ( #69, #172 ) ;
#33 = APPROVAL_DATE_TIME ( #163, #100 ) ;
#34 = PERSON_AND_ORGANIZATION_ROLE ( 'design_owner' ) ;
#35 = DIRECTION ( 'NONE',  ( 4.275831445896958607E-31, 1.000000000000000000, 1.224646799147353207E-16 ) ) ;
#36 = CARTESIAN_POINT ( 'NONE',  ( 9.077851480992146724E-14, 4.499279347985564065E-32, 26.00000000000000000 ) ) ;
#37 = DIRECTION ( 'NONE',  ( -3.491481338843133355E-15, 1.224646799147353207E-16, -1.000000000000000000 ) ) ;
#38 = CARTESIAN_POINT ( 'NONE',  ( 2.880472104545584703E-13, -1.010333609296566392E-14, 82.50000000000000000 ) ) ;
#39 = CIRCLE ( 'NONE', #63, 5.999999999999994671 ) ;
#40 = CC_DESIGN_PERSON_AND_ORGANIZATION_ASSIGNMENT ( #114, #129, ( #178 ) ) ;
#41 = EDGE_CURVE ( 'NONE', #134, #134, #139, .T. ) ;
#42 = AXIS2_PLACEMENT_3D ( 'NONE', #102, #80, #105 ) ;
#43 = ORIENTED_EDGE ( 'NONE', *, *, #51, .T. ) ;
#44 = CALENDAR_DATE ( 2021, 15, 11 ) ;
#45 = CC_DESIGN_PERSON_AND_ORGANIZATION_ASSIGNMENT ( #197, #57, ( #178 ) ) ;
#46 =( NAMED_UNIT ( * ) PLANE_ANGLE_UNIT ( ) SI_UNIT ( $, .RADIAN. ) );
#47 =( LENGTH_UNIT ( ) NAMED_UNIT ( * ) SI_UNIT ( .MILLI., .METRE. ) );
#48 = AXIS2_PLACEMENT_3D ( 'NONE', #153, #111, #90 ) ;
#49 = LOCAL_TIME ( 15, 31, 26.00000000000000000, #70 ) ;
#50 = DIRECTION ( 'NONE',  ( 4.275831445896958607E-31, 1.000000000000000000, 1.224646799147353207E-16 ) ) ;
#51 = EDGE_CURVE ( 'NONE', #18, #18, #203, .T. ) ;
#52 = AXIS2_PLACEMENT_3D ( 'NONE', #78, #94, #120 ) ;
#53 = PLANE ( 'NONE',  #11 ) ;
#54 = ADVANCED_FACE ( 'NONE', ( #130, #55 ), #108, .T. ) ;
#55 = FACE_OUTER_BOUND ( 'NONE', #195, .T. ) ;
#56 = APPROVAL_PERSON_ORGANIZATION ( #110, #100, #162 ) ;
#57 = PERSON_AND_ORGANIZATION_ROLE ( 'creator' ) ;
#58 = ORIENTED_EDGE ( 'NONE', *, *, #59, .F. ) ;
#59 = EDGE_CURVE ( 'NONE', #174, #174, #39, .T. ) ;
#60 = DATE_AND_TIME ( #7, #148 ) ;
#61 = CARTESIAN_POINT ( 'NONE',  ( 2.897929511239800811E-13, 5.499999999999991118, 83.00000000000000000 ) ) ;
#62 = APPLICATION_CONTEXT ( 'configuration controlled 3d designs of mechanical parts and assemblies' ) ;
#63 = AXIS2_PLACEMENT_3D ( 'NONE', #124, #37, #27 ) ;
#64 = AXIS2_PLACEMENT_3D ( 'NONE', #165, #177, #182 ) ;
#65 = MANIFOLD_SOLID_BREP ( 'Corps-Déplacer/Copier1[2]', #127 ) ;
#66 = CC_DESIGN_APPROVAL ( #170, ( #125 ) ) ;
#67 = EDGE_LOOP ( 'NONE', ( #185 ) ) ;
#68 = CARTESIAN_POINT ( 'NONE',  ( 0.0000000000000000000, 0.0000000000000000000, 0.0000000000000000000 ) ) ;
#69 = PERSON ( 'UNSPECIFIED', 'UNSPECIFIED', 'UNSPECIFIED', ('UNSPECIFIED'), ('UNSPECIFIED'), ('UNSPECIFIED') ) ;
#70 = COORDINATED_UNIVERSAL_TIME_OFFSET ( 1, 0, .AHEAD. ) ;
#71 = ORIENTED_EDGE ( 'NONE', *, *, #194, .F. ) ;
#72 = CARTESIAN_POINT ( 'NONE',  ( 2.880472104545584703E-13, 5.999999999999991118, 82.50000000000000000 ) ) ;
#73 = EDGE_CURVE ( 'NONE', #201, #201, #191, .T. ) ;
#74 = DIRECTION ( 'NONE',  ( -3.491481338843133355E-15, 1.224646799147353207E-16, -1.000000000000000000 ) ) ;
#75 = FACE_OUTER_BOUND ( 'NONE', #67, .T. ) ;
#76 = EDGE_LOOP ( 'NONE', ( #43 ) ) ;
#77 = PERSON_AND_ORGANIZATION_ROLE ( 'classification_officer' ) ;
#78 = CARTESIAN_POINT ( 'NONE',  ( 0.0000000000000000000, 0.0000000000000000000, 0.0000000000000000000 ) ) ;
#79 = PERSON_AND_ORGANIZATION ( #69, #172 ) ;
#80 = DIRECTION ( 'NONE',  ( 0.0000000000000000000, 0.0000000000000000000, 1.000000000000000000 ) ) ;
#81 = DESIGN_CONTEXT ( 'detailed design', #166, 'design' ) ;
#82 = CIRCLE ( 'NONE', #64, 5.500000000000001776 ) ;
#83 = EDGE_LOOP ( 'NONE', ( #71 ) ) ;
#84 = APPROVAL_STATUS ( 'not_yet_approved' ) ;
#85 = LOCAL_TIME ( 15, 31, 26.00000000000000000, #118 ) ;
#86 = CC_DESIGN_DATE_AND_TIME_ASSIGNMENT ( #26, #156, ( #125 ) ) ;
#87 = CARTESIAN_POINT ( 'NONE',  ( 9.077851480992146724E-14, 4.499279347985564065E-32, 26.00000000000000000 ) ) ;
#88 = FACE_OUTER_BOUND ( 'NONE', #157, .T. ) ;
#89 = APPROVAL_PERSON_ORGANIZATION ( #19, #170, #202 ) ;
#90 = DIRECTION ( 'NONE',  ( 0.0000000000000000000, 1.000000000000000000, 0.0000000000000000000 ) ) ;
#91 = SECURITY_CLASSIFICATION ( '', '', #29 ) ;
#92 = PRODUCT_DEFINITION_SHAPE ( 'NONE', 'NONE',  #125 ) ;
#93 = APPROVAL_DATE_TIME ( #109, #170 ) ;
#94 = DIRECTION ( 'NONE',  ( -3.491481338843133355E-15, 1.224646799147353207E-16, -1.000000000000000000 ) ) ;
#95 = DIRECTION ( 'NONE',  ( -4.275831445896958607E-31, -1.000000000000000000, -1.224646799147353207E-16 ) ) ;
#96 = AXIS2_PLACEMENT_3D ( 'NONE', #106, #74, #132 ) ;
#97 = ORIENTED_EDGE ( 'NONE', *, *, #41, .T. ) ;
#98 = FACE_OUTER_BOUND ( 'NONE', #76, .T. ) ;
#99 = CALENDAR_DATE ( 2021, 15, 11 ) ;
#100 = APPROVAL ( #31, 'UNSPECIFIED' ) ;
#101 = SHAPE_DEFINITION_REPRESENTATION ( #92, #103 ) ;
#102 = CARTESIAN_POINT ( 'NONE',  ( 0.0000000000000000000, 0.0000000000000000000, 0.0000000000000000000 ) ) ;
#103 = ADVANCED_BREP_SHAPE_REPRESENTATION ( '39946', ( #9, #65, #42 ), #154 ) ;
#104 = DIRECTION ( 'NONE',  ( -3.491481338843133355E-15, 1.224646799147353207E-16, -1.000000000000000000 ) ) ;
#105 = DIRECTION ( 'NONE',  ( 1.000000000000000000, 0.0000000000000000000, 0.0000000000000000000 ) ) ;
#106 = CARTESIAN_POINT ( 'NONE',  ( -2.137923559883791872E-30, 7.498826401578061086E-32, -6.123256441611602477E-16 ) ) ;
#107 = AXIS2_PLACEMENT_3D ( 'NONE', #38, #126, #141 ) ;
#108 = CYLINDRICAL_SURFACE ( 'NONE', #158, 5.999999999999992895 ) ;
#109 = DATE_AND_TIME ( #117, #25 ) ;
#110 = PERSON_AND_ORGANIZATION ( #69, #172 ) ;
#111 = DIRECTION ( 'NONE',  ( -3.491481338843133355E-15, 1.224646799147353207E-16, -1.000000000000000000 ) ) ;
#112 = PRODUCT_RELATED_PRODUCT_CATEGORY ( 'detail', '', ( #15 ) ) ;
#113 = EDGE_LOOP ( 'NONE', ( #152 ) ) ;
#114 = PERSON_AND_ORGANIZATION ( #69, #172 ) ;
#115 = APPLICATION_PROTOCOL_DEFINITION ( 'international standard', 'config_control_design', 1994, #166 ) ;
#116 = CC_DESIGN_APPROVAL ( #100, ( #91 ) ) ;
#117 = CALENDAR_DATE ( 2021, 15, 11 ) ;
#118 = COORDINATED_UNIVERSAL_TIME_OFFSET ( 1, 0, .AHEAD. ) ;
#119 =( NAMED_UNIT ( * ) SI_UNIT ( $, .STERADIAN. ) SOLID_ANGLE_UNIT ( ) );
#120 = DIRECTION ( 'NONE',  ( 4.275831445896958607E-31, 1.000000000000000000, 1.224646799147353207E-16 ) ) ;
#121 = PLANE ( 'NONE',  #123 ) ;
#122 = CONICAL_SURFACE ( 'NONE', #169, 5.500000000000001776, 0.7853981633974482790 ) ;
#123 = AXIS2_PLACEMENT_3D ( 'NONE', #183, #184, #35 ) ;
#124 = CARTESIAN_POINT ( 'NONE',  ( 9.077851480992146724E-14, -3.184081677783118191E-15, 26.00000000000000000 ) ) ;
#125 = PRODUCT_DEFINITION ( 'UNKNOWN', '', #178, #81 ) ;
#126 = DIRECTION ( 'NONE',  ( -3.491481338843133355E-15, 1.224646799147353207E-16, -1.000000000000000000 ) ) ;
#127 = CLOSED_SHELL ( 'NONE', ( #24, #54, #3 ) ) ;
#128 = CARTESIAN_POINT ( 'NONE',  ( 2.897929511239800811E-13, -1.016456843292303150E-14, 83.00000000000000000 ) ) ;
#129 = PERSON_AND_ORGANIZATION_ROLE ( 'design_supplier' ) ;
#130 = FACE_OUTER_BOUND ( 'NONE', #160, .T. ) ;
#131 = APPROVAL_STATUS ( 'not_yet_approved' ) ;
#132 = DIRECTION ( 'NONE',  ( 4.275831445896959482E-31, 1.000000000000000000, 1.224646799147353207E-16 ) ) ;
#133 = ORIENTED_EDGE ( 'NONE', *, *, #41, .F. ) ;
#134 = VERTEX_POINT ( 'NONE', #161 ) ;
#135 = CC_DESIGN_DATE_AND_TIME_ASSIGNMENT ( #60, #179, ( #91 ) ) ;
#136 = FACE_OUTER_BOUND ( 'NONE', #196, .T. ) ;
#137 = FACE_BOUND ( 'NONE', #144, .T. ) ;
#138 = PERSON_AND_ORGANIZATION ( #69, #172 ) ;
#139 = CIRCLE ( 'NONE', #48, 5.999999999999994671 ) ;
#140 = APPROVAL_DATE_TIME ( #176, #188 ) ;
#141 = DIRECTION ( 'NONE',  ( 0.0000000000000000000, 1.000000000000000000, 0.0000000000000000000 ) ) ;
#142 = CC_DESIGN_APPROVAL ( #188, ( #178 ) ) ;
#143 = LOCAL_TIME ( 15, 31, 26.00000000000000000, #146 ) ;
#144 = EDGE_LOOP ( 'NONE', ( #17 ) ) ;
#145 = CYLINDRICAL_SURFACE ( 'NONE', #52, 5.999999999999998224 ) ;
#146 = COORDINATED_UNIVERSAL_TIME_OFFSET ( 1, 0, .AHEAD. ) ;
#147 = CARTESIAN_POINT ( 'NONE',  ( 9.077851480992146724E-14, 5.999999999999991118, 26.00000000000000000 ) ) ;
#148 = LOCAL_TIME ( 15, 31, 26.00000000000000000, #4 ) ;
#149 = DIRECTION ( 'NONE',  ( 3.491481338843133355E-15, -1.224646799147353207E-16, 1.000000000000000000 ) ) ;
#150 = PLANE ( 'NONE',  #193 ) ;
#151 = CC_DESIGN_PERSON_AND_ORGANIZATION_ASSIGNMENT ( #79, #173, ( #125 ) ) ;
#152 = ORIENTED_EDGE ( 'NONE', *, *, #59, .T. ) ;
#153 = CARTESIAN_POINT ( 'NONE',  ( 9.077851480992146724E-14, -3.184081677783118191E-15, 26.00000000000000000 ) ) ;
#154 =( GEOMETRIC_REPRESENTATION_CONTEXT ( 3 ) GLOBAL_UNCERTAINTY_ASSIGNED_CONTEXT ( ( #198 ) ) GLOBAL_UNIT_ASSIGNED_CONTEXT ( ( #47, #46, #119 ) ) REPRESENTATION_CONTEXT ( 'NONE', 'WORKASPACE' ) );
#155 = CC_DESIGN_PERSON_AND_ORGANIZATION_ASSIGNMENT ( #32, #34, ( #15 ) ) ;
#156 = DATE_TIME_ROLE ( 'creation_date' ) ;
#157 = EDGE_LOOP ( 'NONE', ( #133 ) ) ;
#158 = AXIS2_PLACEMENT_3D ( 'NONE', #68, #2, #50 ) ;
#159 = PERSON_AND_ORGANIZATION ( #69, #172 ) ;
#160 = EDGE_LOOP ( 'NONE', ( #192 ) ) ;
#161 = CARTESIAN_POINT ( 'NONE',  ( 9.077851480992146724E-14, 5.999999999999991118, 26.00000000000000000 ) ) ;
#162 = APPROVAL_ROLE ( '' ) ;
#163 = DATE_AND_TIME ( #180, #85 ) ;
#164 = DIRECTION ( 'NONE',  ( 0.0000000000000000000, 1.000000000000000000, 0.0000000000000000000 ) ) ;
#165 = CARTESIAN_POINT ( 'NONE',  ( 2.897929511239800811E-13, -1.016456843292303150E-14, 83.00000000000000000 ) ) ;
#166 = APPLICATION_CONTEXT ( 'configuration controlled 3d designs of mechanical parts and assemblies' ) ;
#167 = FACE_OUTER_BOUND ( 'NONE', #113, .T. ) ;
#168 = DIRECTION ( 'NONE',  ( 3.491481338843133355E-15, -1.224646799147353207E-16, 1.000000000000000000 ) ) ;
#169 = AXIS2_PLACEMENT_3D ( 'NONE', #128, #104, #164 ) ;
#170 = APPROVAL ( #84, 'UNSPECIFIED' ) ;
#171 = CLOSED_SHELL ( 'NONE', ( #1, #199, #5, #21 ) ) ;
#172 = ORGANIZATION ( 'UNSPECIFIED', 'UNSPECIFIED', '' ) ;
#173 = PERSON_AND_ORGANIZATION_ROLE ( 'creator' ) ;
#174 = VERTEX_POINT ( 'NONE', #147 ) ;
#175 = ORIENTED_EDGE ( 'NONE', *, *, #51, .F. ) ;
#176 = DATE_AND_TIME ( #44, #143 ) ;
#177 = DIRECTION ( 'NONE',  ( -3.491481338843133355E-15, 1.224646799147353207E-16, -1.000000000000000000 ) ) ;
#178 = PRODUCT_DEFINITION_FORMATION_WITH_SPECIFIED_SOURCE ( 'ANY', '', #15, .NOT_KNOWN. ) ;
#179 = DATE_TIME_ROLE ( 'classification_date' ) ;
#180 = CALENDAR_DATE ( 2021, 15, 11 ) ;
#181 = CARTESIAN_POINT ( 'NONE',  ( 4.275753076543797008E-31, 5.999999999999991118, 1.224624353272506412E-16 ) ) ;
#182 = DIRECTION ( 'NONE',  ( 0.0000000000000000000, 1.000000000000000000, 0.0000000000000000000 ) ) ;
#183 = CARTESIAN_POINT ( 'NONE',  ( 2.897929511239800811E-13, 4.124339402320094190E-32, 83.00000000000000000 ) ) ;
#184 = DIRECTION ( 'NONE',  ( -3.491481338843133355E-15, 1.224646799147353207E-16, -1.000000000000000000 ) ) ;
#185 = ORIENTED_EDGE ( 'NONE', *, *, #73, .T. ) ;
#186 = DIRECTION ( 'NONE',  ( -4.275831445896958607E-31, -1.000000000000000000, -1.224646799147353207E-16 ) ) ;
#187 = DIRECTION ( 'NONE',  ( -4.275831445896958607E-31, -1.000000000000000000, -1.224646799147353207E-16 ) ) ;
#188 = APPROVAL ( #131, 'UNSPECIFIED' ) ;
#189 = CARTESIAN_POINT ( 'NONE',  ( -1.068961779941895936E-30, 3.749413200789030543E-32, -3.061628220805801239E-16 ) ) ;
#190 = DIRECTION ( 'NONE',  ( 3.491481338843133355E-15, -1.224646799147353207E-16, 1.000000000000000000 ) ) ;
#191 = CIRCLE ( 'NONE', #96, 5.999999999999991118 ) ;
#192 = ORIENTED_EDGE ( 'NONE', *, *, #73, .F. ) ;
#193 = AXIS2_PLACEMENT_3D ( 'NONE', #36, #168, #95 ) ;
#194 = EDGE_CURVE ( 'NONE', #8, #8, #82, .T. ) ;
#195 = EDGE_LOOP ( 'NONE', ( #97 ) ) ;
#196 = EDGE_LOOP ( 'NONE', ( #175 ) ) ;
#197 = PERSON_AND_ORGANIZATION ( #69, #172 ) ;
#198 = UNCERTAINTY_MEASURE_WITH_UNIT (LENGTH_MEASURE( 1.000000000000000082E-05 ), #47, 'distance_accuracy_value', 'NONE');
#199 = ADVANCED_FACE ( 'NONE', ( #30, #98 ), #145, .T. ) ;
#200 = COORDINATED_UNIVERSAL_TIME_OFFSET ( 1, 0, .AHEAD. ) ;
#201 = VERTEX_POINT ( 'NONE', #181 ) ;
#202 = APPROVAL_ROLE ( '' ) ;
#203 = CIRCLE ( 'NONE', #107, 6.000000000000001776 ) ;
ENDSEC;
END-ISO-10303-21;
