ISO-10303-21;
HEADER;
FILE_DESCRIPTION (( 'STEP AP203' ),
    '1' );
FILE_NAME ('39945.step',
    '2021-11-01T10:35:07',
    ( '' ),
    ( '' ),
    'SwSTEP 2.0',
    'SolidWorks 2019',
    '' );
FILE_SCHEMA (( 'CONFIG_CONTROL_DESIGN' ));
ENDSEC;

DATA;
#1 = ORIENTED_EDGE ( 'NONE', *, *, #160, .T. ) ;
#2 = DIRECTION ( 'NONE',  ( 0.0000000000000000000, 1.000000000000000000, 0.0000000000000000000 ) ) ;
#3 = CYLINDRICAL_SURFACE ( 'NONE', #124, 5.999999999999998224 ) ;
#4 = CIRCLE ( 'NONE', #103, 5.500000000000006217 ) ;
#5 = DIRECTION ( 'NONE',  ( -3.491481338843133355E-15, 1.224646799147353207E-16, -1.000000000000000000 ) ) ;
#6 = APPROVAL_PERSON_ORGANIZATION ( #106, #47, #146 ) ;
#7 = DIRECTION ( 'NONE',  ( -3.491481338843133355E-15, 1.224646799147353207E-16, -1.000000000000000000 ) ) ;
#8 = DIRECTION ( 'NONE',  ( 0.0000000000000000000, 1.000000000000000000, 0.0000000000000000000 ) ) ;
#9 = CC_DESIGN_APPROVAL ( #47, ( #87 ) ) ;
#10 = APPROVAL_DATE_TIME ( #69, #47 ) ;
#11 = COORDINATED_UNIVERSAL_TIME_OFFSET ( 1, 0, .AHEAD. ) ;
#12 = SECURITY_CLASSIFICATION_LEVEL ( 'unclassified' ) ;
#13 = DATE_AND_TIME ( #130, #108 ) ;
#14 = ADVANCED_FACE ( 'NONE', ( #135, #60 ), #139, .T. ) ;
#15 = COORDINATED_UNIVERSAL_TIME_OFFSET ( 1, 0, .AHEAD. ) ;
#16 = AXIS2_PLACEMENT_3D ( 'NONE', #33, #141, #100 ) ;
#17 = SECURITY_CLASSIFICATION ( '', '', #12 ) ;
#18 = CC_DESIGN_PERSON_AND_ORGANIZATION_ASSIGNMENT ( #89, #168, ( #68 ) ) ;
#19 = EDGE_LOOP ( 'NONE', ( #76 ) ) ;
#20 = DIRECTION ( 'NONE',  ( 4.275831445896958607E-31, 1.000000000000000000, 1.224646799147353207E-16 ) ) ;
#21 = DIRECTION ( 'NONE',  ( -4.333342374871280669E-31, -1.000000000000000000, -1.219727444046192488E-16 ) ) ;
#22 = PLANE ( 'NONE',  #16 ) ;
#23 = CARTESIAN_POINT ( 'NONE',  ( 0.0000000000000000000, 0.0000000000000000000, 0.0000000000000000000 ) ) ;
#24 = APPROVAL_PERSON_ORGANIZATION ( #171, #211, #186 ) ;
#25 = VERTEX_POINT ( 'NONE', #196 ) ;
#26 = CALENDAR_DATE ( 2021, 1, 11 ) ;
#27 = MECHANICAL_CONTEXT ( 'NONE', #117, 'mechanical' ) ;
#28 = APPLICATION_PROTOCOL_DEFINITION ( 'international standard', 'config_control_design', 1994, #117 ) ;
#29 = AXIS2_PLACEMENT_3D ( 'NONE', #101, #7, #144 ) ;
#30 = AXIS2_PLACEMENT_3D ( 'NONE', #67, #129, #88 ) ;
#31 = EDGE_LOOP ( 'NONE', ( #77 ) ) ;
#32 = FACE_OUTER_BOUND ( 'NONE', #92, .T. ) ;
#33 = CARTESIAN_POINT ( 'NONE',  ( 7.681258945454893382E-14, 4.499279347985568444E-32, 22.00000000000000000 ) ) ;
#34 = PERSON ( 'UNSPECIFIED', 'UNSPECIFIED', 'UNSPECIFIED', ('UNSPECIFIED'), ('UNSPECIFIED'), ('UNSPECIFIED') ) ;
#35 = PLANE ( 'NONE',  #161 ) ;
#36 = CC_DESIGN_PERSON_AND_ORGANIZATION_ASSIGNMENT ( #53, #107, ( #87 ) ) ;
#37 = CARTESIAN_POINT ( 'NONE',  ( -4.968102369887241017E-30, -5.800000000000001599, -1.422921072100981197E-15 ) ) ;
#38 = FACE_OUTER_BOUND ( 'NONE', #116, .T. ) ;
#39 = DESIGN_CONTEXT ( 'detailed design', #200, 'design' ) ;
#40 = CARTESIAN_POINT ( 'NONE',  ( 7.681258945454893382E-14, 4.499279347985568444E-32, 22.00000000000000000 ) ) ;
#41 = CIRCLE ( 'NONE', #93, 5.999999999999999112 ) ;
#42 = CALENDAR_DATE ( 2021, 1, 11 ) ;
#43 = ORIENTED_EDGE ( 'NONE', *, *, #176, .F. ) ;
#44 = CC_DESIGN_DATE_AND_TIME_ASSIGNMENT ( #13, #147, ( #87 ) ) ;
#45 = DIRECTION ( 'NONE',  ( 3.491481338843133355E-15, -1.226656096638776648E-16, 1.000000000000000000 ) ) ;
#46 = CARTESIAN_POINT ( 'NONE',  ( -3.206818868613519561E-31, 1.124800645273999227E-32, -9.184694281299141032E-17 ) ) ;
#47 = APPROVAL ( #170, 'UNSPECIFIED' ) ;
#48 = DIRECTION ( 'NONE',  ( 3.491481338843133355E-15, -1.226656096638776648E-16, 1.000000000000000000 ) ) ;
#49 = DIRECTION ( 'NONE',  ( -3.491481338843133355E-15, 1.224646799147353207E-16, -1.000000000000000000 ) ) ;
#50 = CONICAL_SURFACE ( 'NONE', #29, 5.500000000000006217, 0.7853981633974482790 ) ;
#51 = DIRECTION ( 'NONE',  ( 4.275831445896958607E-31, 1.000000000000000000, 1.224646799147353207E-16 ) ) ;
#52 = ADVANCED_BREP_SHAPE_REPRESENTATION ( '39945', ( #143, #58, #30 ), #204 ) ;
#53 = PERSON_AND_ORGANIZATION ( #34, #94 ) ;
#54 = DATE_AND_TIME ( #150, #145 ) ;
#55 = APPROVAL_STATUS ( 'not_yet_approved' ) ;
#56 = ADVANCED_FACE ( 'NONE', ( #32, #209 ), #50, .T. ) ;
#57 = PERSON_AND_ORGANIZATION_ROLE ( 'design_owner' ) ;
#58 = MANIFOLD_SOLID_BREP ( 'Corps-Déplacer/Copier1[2]', #102 ) ;
#59 = ORIENTED_EDGE ( 'NONE', *, *, #95, .F. ) ;
#60 = FACE_OUTER_BOUND ( 'NONE', #154, .T. ) ;
#61 = DIRECTION ( 'NONE',  ( -3.491481338843133355E-15, 1.224646799147353207E-16, -1.000000000000000000 ) ) ;
#62 = CYLINDRICAL_SURFACE ( 'NONE', #197, 6.000000000000003553 ) ;
#63 = AXIS2_PLACEMENT_3D ( 'NONE', #194, #216, #8 ) ;
#64 = VERTEX_POINT ( 'NONE', #37 ) ;
#65 = DIRECTION ( 'NONE',  ( -3.491481338843133355E-15, 1.224646799147353207E-16, -1.000000000000000000 ) ) ;
#66 = FACE_OUTER_BOUND ( 'NONE', #113, .T. ) ;
#67 = CARTESIAN_POINT ( 'NONE',  ( 0.0000000000000000000, 0.0000000000000000000, 0.0000000000000000000 ) ) ;
#68 = PRODUCT_DEFINITION_FORMATION_WITH_SPECIFIED_SOURCE ( 'ANY', '', #118, .NOT_KNOWN. ) ;
#69 = DATE_AND_TIME ( #26, #114 ) ;
#70 = CARTESIAN_POINT ( 'NONE',  ( 7.681258945454893382E-14, 5.999999999999996447, 22.00000000000000000 ) ) ;
#71 = PERSON_AND_ORGANIZATION ( #34, #94 ) ;
#72 = AXIS2_PLACEMENT_3D ( 'NONE', #175, #48, #21 ) ;
#73 = COORDINATED_UNIVERSAL_TIME_OFFSET ( 1, 0, .AHEAD. ) ;
#74 = APPROVAL_STATUS ( 'not_yet_approved' ) ;
#75 = LOCAL_TIME ( 11, 35, 7.000000000000000000, #15 ) ;
#76 = ORIENTED_EDGE ( 'NONE', *, *, #176, .T. ) ;
#77 = ORIENTED_EDGE ( 'NONE', *, *, #172, .T. ) ;
#78 = APPROVAL ( #55, 'UNSPECIFIED' ) ;
#79 = CIRCLE ( 'NONE', #72, 6.000000000000000000 ) ;
#80 = DIRECTION ( 'NONE',  ( 4.275831445896958607E-31, 1.000000000000000000, 1.224646799147353207E-16 ) ) ;
#81 = DIRECTION ( 'NONE',  ( 3.491481338843133355E-15, -1.226656096638776648E-16, 1.000000000000000000 ) ) ;
#82 = CARTESIAN_POINT ( 'NONE',  ( 7.681258945454893382E-14, -2.694222958124176809E-15, 22.00000000000000000 ) ) ;
#83 = VERTEX_POINT ( 'NONE', #70 ) ;
#84 = ADVANCED_FACE ( 'NONE', ( #163 ), #22, .F. ) ;
#85 =( NAMED_UNIT ( * ) SI_UNIT ( $, .STERADIAN. ) SOLID_ANGLE_UNIT ( ) );
#86 = APPROVAL_DATE_TIME ( #181, #78 ) ;
#87 = PRODUCT_DEFINITION ( 'UNKNOWN', '', #68, #39 ) ;
#88 = DIRECTION ( 'NONE',  ( 1.000000000000000000, 0.0000000000000000000, 0.0000000000000000000 ) ) ;
#89 = PERSON_AND_ORGANIZATION ( #34, #94 ) ;
#90 = AXIS2_PLACEMENT_3D ( 'NONE', #208, #45, #191 ) ;
#91 = EDGE_CURVE ( 'NONE', #64, #64, #169, .T. ) ;
#92 = EDGE_LOOP ( 'NONE', ( #137 ) ) ;
#93 = AXIS2_PLACEMENT_3D ( 'NONE', #157, #164, #2 ) ;
#94 = ORGANIZATION ( 'UNSPECIFIED', 'UNSPECIFIED', '' ) ;
#95 = EDGE_CURVE ( 'NONE', #123, #123, #41, .T. ) ;
#96 = ORIENTED_EDGE ( 'NONE', *, *, #149, .F. ) ;
#97 = EDGE_LOOP ( 'NONE', ( #223 ) ) ;
#98 = CC_DESIGN_APPROVAL ( #211, ( #17 ) ) ;
#99 = FACE_OUTER_BOUND ( 'NONE', #133, .T. ) ;
#100 = DIRECTION ( 'NONE',  ( -4.275831445896958607E-31, -1.000000000000000000, -1.224646799147353207E-16 ) ) ;
#101 = CARTESIAN_POINT ( 'NONE',  ( 2.897929511239800811E-13, -1.016456843292303150E-14, 83.00000000000000000 ) ) ;
#102 = CLOSED_SHELL ( 'NONE', ( #120, #105, #14, #188 ) ) ;
#103 = AXIS2_PLACEMENT_3D ( 'NONE', #142, #65, #213 ) ;
#104 = DIRECTION ( 'NONE',  ( 3.491481338843133355E-15, -1.224646799147353207E-16, 1.000000000000000000 ) ) ;
#105 = ADVANCED_FACE ( 'NONE', ( #66 ), #35, .T. ) ;
#106 = PERSON_AND_ORGANIZATION ( #34, #94 ) ;
#107 = PERSON_AND_ORGANIZATION_ROLE ( 'creator' ) ;
#108 = LOCAL_TIME ( 11, 35, 7.000000000000000000, #11 ) ;
#109 =( LENGTH_UNIT ( ) NAMED_UNIT ( * ) SI_UNIT ( .MILLI., .METRE. ) );
#110 = COORDINATED_UNIVERSAL_TIME_OFFSET ( 1, 0, .AHEAD. ) ;
#111 = EDGE_LOOP ( 'NONE', ( #155 ) ) ;
#112 = PRODUCT_RELATED_PRODUCT_CATEGORY ( 'detail', '', ( #118 ) ) ;
#113 = EDGE_LOOP ( 'NONE', ( #206 ) ) ;
#114 = LOCAL_TIME ( 11, 35, 7.000000000000000000, #218 ) ;
#115 = DATE_AND_TIME ( #153, #75 ) ;
#116 = EDGE_LOOP ( 'NONE', ( #96 ) ) ;
#117 = APPLICATION_CONTEXT ( 'configuration controlled 3d designs of mechanical parts and assemblies' ) ;
#118 = PRODUCT ( '39945', '39945', '', ( #27 ) ) ;
#119 = CARTESIAN_POINT ( 'NONE',  ( 0.0000000000000000000, 0.0000000000000000000, 0.0000000000000000000 ) ) ;
#120 = ADVANCED_FACE ( 'NONE', ( #122, #212 ), #3, .T. ) ;
#121 = DIRECTION ( 'NONE',  ( 3.491481338843133355E-15, -1.224646799147353207E-16, 1.000000000000000000 ) ) ;
#122 = FACE_OUTER_BOUND ( 'NONE', #207, .T. ) ;
#123 = VERTEX_POINT ( 'NONE', #195 ) ;
#124 = AXIS2_PLACEMENT_3D ( 'NONE', #119, #49, #80 ) ;
#125 = PLANE ( 'NONE',  #217 ) ;
#126 = APPROVAL_ROLE ( '' ) ;
#127 = DATE_TIME_ROLE ( 'classification_date' ) ;
#128 = LOCAL_TIME ( 11, 35, 7.000000000000000000, #110 ) ;
#129 = DIRECTION ( 'NONE',  ( 0.0000000000000000000, 0.0000000000000000000, 1.000000000000000000 ) ) ;
#130 = CALENDAR_DATE ( 2021, 1, 11 ) ;
#131 = CC_DESIGN_PERSON_AND_ORGANIZATION_ASSIGNMENT ( #167, #57, ( #118 ) ) ;
#132 = APPLICATION_PROTOCOL_DEFINITION ( 'international standard', 'config_control_design', 1994, #200 ) ;
#133 = EDGE_LOOP ( 'NONE', ( #59 ) ) ;
#134 = ADVANCED_FACE ( 'NONE', ( #99, #173 ), #62, .T. ) ;
#135 = FACE_BOUND ( 'NONE', #97, .T. ) ;
#136 = SHAPE_DEFINITION_REPRESENTATION ( #201, #52 ) ;
#137 = ORIENTED_EDGE ( 'NONE', *, *, #172, .F. ) ;
#138 = DIRECTION ( 'NONE',  ( 0.0000000000000000000, 1.000000000000000000, 0.0000000000000000000 ) ) ;
#139 = CONICAL_SURFACE ( 'NONE', #90, 6.000000000000000000, 0.7853981633974449483 ) ;
#140 = CC_DESIGN_SECURITY_CLASSIFICATION ( #17, ( #68 ) ) ;
#141 = DIRECTION ( 'NONE',  ( 3.491481338843133355E-15, -1.224646799147353207E-16, 1.000000000000000000 ) ) ;
#142 = CARTESIAN_POINT ( 'NONE',  ( 2.897929511239800811E-13, -1.016456843292303150E-14, 83.00000000000000000 ) ) ;
#143 = MANIFOLD_SOLID_BREP ( 'Corps-Déplacer/Copier1[1]', #151 ) ;
#144 = DIRECTION ( 'NONE',  ( 0.0000000000000000000, 1.000000000000000000, 0.0000000000000000000 ) ) ;
#145 = LOCAL_TIME ( 11, 35, 7.000000000000000000, #73 ) ;
#146 = APPROVAL_ROLE ( '' ) ;
#147 = DATE_TIME_ROLE ( 'creation_date' ) ;
#148 = VERTEX_POINT ( 'NONE', #203 ) ;
#149 = EDGE_CURVE ( 'NONE', #25, #25, #4, .T. ) ;
#150 = CALENDAR_DATE ( 2021, 1, 11 ) ;
#151 = CLOSED_SHELL ( 'NONE', ( #84, #134, #56, #165 ) ) ;
#152 = ORIENTED_EDGE ( 'NONE', *, *, #149, .T. ) ;
#153 = CALENDAR_DATE ( 2021, 1, 11 ) ;
#154 = EDGE_LOOP ( 'NONE', ( #43 ) ) ;
#155 = ORIENTED_EDGE ( 'NONE', *, *, #91, .F. ) ;
#156 = CC_DESIGN_DATE_AND_TIME_ASSIGNMENT ( #54, #127, ( #17 ) ) ;
#157 = CARTESIAN_POINT ( 'NONE',  ( 7.681258945454893382E-14, -2.694222958124176809E-15, 22.00000000000000000 ) ) ;
#158 = DIRECTION ( 'NONE',  ( -4.282846870592448247E-31, -1.000000000000000000, -1.226656096638776648E-16 ) ) ;
#159 = DIRECTION ( 'NONE',  ( -4.275831445896958607E-31, -1.000000000000000000, -1.224646799147353207E-16 ) ) ;
#160 = EDGE_CURVE ( 'NONE', #83, #83, #220, .T. ) ;
#161 = AXIS2_PLACEMENT_3D ( 'NONE', #40, #104, #159 ) ;
#162 = APPROVAL_PERSON_ORGANIZATION ( #199, #78, #126 ) ;
#163 = FACE_OUTER_BOUND ( 'NONE', #190, .T. ) ;
#164 = DIRECTION ( 'NONE',  ( -3.491481338843133355E-15, 1.224646799147353207E-16, -1.000000000000000000 ) ) ;
#165 = ADVANCED_FACE ( 'NONE', ( #38 ), #192, .F. ) ;
#166 = PERSON_AND_ORGANIZATION ( #34, #94 ) ;
#167 = PERSON_AND_ORGANIZATION ( #34, #94 ) ;
#168 = PERSON_AND_ORGANIZATION_ROLE ( 'creator' ) ;
#169 = CIRCLE ( 'NONE', #183, 5.800000000000001599 ) ;
#170 = APPROVAL_STATUS ( 'not_yet_approved' ) ;
#171 = PERSON_AND_ORGANIZATION ( #34, #94 ) ;
#172 = EDGE_CURVE ( 'NONE', #202, #202, #174, .T. ) ;
#173 = FACE_OUTER_BOUND ( 'NONE', #31, .T. ) ;
#174 = CIRCLE ( 'NONE', #63, 6.000000000000007105 ) ;
#175 = CARTESIAN_POINT ( 'NONE',  ( 6.982962677686246989E-16, -2.453312193277549166E-17, 0.1999999999999994282 ) ) ;
#176 = EDGE_CURVE ( 'NONE', #148, #148, #79, .T. ) ;
#177 = CARTESIAN_POINT ( 'NONE',  ( -2.484051184943620158E-30, 6.067287630905563479E-32, -7.114605360504905986E-16 ) ) ;
#178 = DIRECTION ( 'NONE',  ( -3.491481338843133355E-15, 1.224646799147353207E-16, -1.000000000000000000 ) ) ;
#179 = DIRECTION ( 'NONE',  ( -4.275831445896958607E-31, -1.000000000000000000, -1.224646799147353207E-16 ) ) ;
#180 = CARTESIAN_POINT ( 'NONE',  ( 2.880472104545584703E-13, 5.999999999999996447, 82.50000000000000000 ) ) ;
#181 = DATE_AND_TIME ( #42, #128 ) ;
#182 = PERSON_AND_ORGANIZATION_ROLE ( 'classification_officer' ) ;
#183 = AXIS2_PLACEMENT_3D ( 'NONE', #177, #81, #158 ) ;
#184 = CC_DESIGN_APPROVAL ( #78, ( #68 ) ) ;
#185 = APPROVAL_DATE_TIME ( #115, #211 ) ;
#186 = APPROVAL_ROLE ( '' ) ;
#187 = EDGE_LOOP ( 'NONE', ( #152 ) ) ;
#188 = ADVANCED_FACE ( 'NONE', ( #210 ), #125, .F. ) ;
#189 = AXIS2_PLACEMENT_3D ( 'NONE', #193, #178, #51 ) ;
#190 = EDGE_LOOP ( 'NONE', ( #205 ) ) ;
#191 = DIRECTION ( 'NONE',  ( -4.333342374871280669E-31, -1.000000000000000000, -1.219727444046192488E-16 ) ) ;
#192 = PLANE ( 'NONE',  #189 ) ;
#193 = CARTESIAN_POINT ( 'NONE',  ( 2.897929511239800811E-13, 4.124339402320098021E-32, 83.00000000000000000 ) ) ;
#194 = CARTESIAN_POINT ( 'NONE',  ( 2.880472104545584703E-13, -1.010333609296566392E-14, 82.50000000000000000 ) ) ;
#195 = CARTESIAN_POINT ( 'NONE',  ( 7.681258945454893382E-14, 5.999999999999996447, 22.00000000000000000 ) ) ;
#196 = CARTESIAN_POINT ( 'NONE',  ( 2.897929511239800811E-13, 5.499999999999996447, 83.00000000000000000 ) ) ;
#197 = AXIS2_PLACEMENT_3D ( 'NONE', #23, #5, #20 ) ;
#198 = CC_DESIGN_PERSON_AND_ORGANIZATION_ASSIGNMENT ( #71, #182, ( #17 ) ) ;
#199 = PERSON_AND_ORGANIZATION ( #34, #94 ) ;
#200 = APPLICATION_CONTEXT ( 'configuration controlled 3d designs of mechanical parts and assemblies' ) ;
#201 = PRODUCT_DEFINITION_SHAPE ( 'NONE', 'NONE',  #87 ) ;
#202 = VERTEX_POINT ( 'NONE', #180 ) ;
#203 = CARTESIAN_POINT ( 'NONE',  ( 6.982962677686221351E-16, -6.000000000000000000, 0.1999999999999987066 ) ) ;
#204 =( GEOMETRIC_REPRESENTATION_CONTEXT ( 3 ) GLOBAL_UNCERTAINTY_ASSIGNED_CONTEXT ( ( #214 ) ) GLOBAL_UNIT_ASSIGNED_CONTEXT ( ( #109, #221, #85 ) ) REPRESENTATION_CONTEXT ( 'NONE', 'WORKASPACE' ) );
#205 = ORIENTED_EDGE ( 'NONE', *, *, #95, .T. ) ;
#206 = ORIENTED_EDGE ( 'NONE', *, *, #160, .F. ) ;
#207 = EDGE_LOOP ( 'NONE', ( #1 ) ) ;
#208 = CARTESIAN_POINT ( 'NONE',  ( 6.982962677686246989E-16, -2.453312193277549166E-17, 0.1999999999999994282 ) ) ;
#209 = FACE_BOUND ( 'NONE', #187, .T. ) ;
#210 = FACE_OUTER_BOUND ( 'NONE', #111, .T. ) ;
#211 = APPROVAL ( #74, 'UNSPECIFIED' ) ;
#212 = FACE_OUTER_BOUND ( 'NONE', #19, .T. ) ;
#213 = DIRECTION ( 'NONE',  ( 0.0000000000000000000, 1.000000000000000000, 0.0000000000000000000 ) ) ;
#214 = UNCERTAINTY_MEASURE_WITH_UNIT (LENGTH_MEASURE( 1.000000000000000082E-05 ), #109, 'distance_accuracy_value', 'NONE');
#215 = CC_DESIGN_PERSON_AND_ORGANIZATION_ASSIGNMENT ( #166, #219, ( #68 ) ) ;
#216 = DIRECTION ( 'NONE',  ( -3.491481338843133355E-15, 1.224646799147353207E-16, -1.000000000000000000 ) ) ;
#217 = AXIS2_PLACEMENT_3D ( 'NONE', #46, #121, #179 ) ;
#218 = COORDINATED_UNIVERSAL_TIME_OFFSET ( 1, 0, .AHEAD. ) ;
#219 = PERSON_AND_ORGANIZATION_ROLE ( 'design_supplier' ) ;
#220 = CIRCLE ( 'NONE', #222, 5.999999999999999112 ) ;
#221 =( NAMED_UNIT ( * ) PLANE_ANGLE_UNIT ( ) SI_UNIT ( $, .RADIAN. ) );
#222 = AXIS2_PLACEMENT_3D ( 'NONE', #82, #61, #138 ) ;
#223 = ORIENTED_EDGE ( 'NONE', *, *, #91, .T. ) ;
ENDSEC;
END-ISO-10303-21;
