ISO-10303-21;
HEADER;
FILE_DESCRIPTION (( 'STEP AP203' ),
    '1' );
FILE_NAME ('39944.step',
    '2021-11-01T09:16:09',
    ( '' ),
    ( '' ),
    'SwSTEP 2.0',
    'SolidWorks 2019',
    '' );
FILE_SCHEMA (( 'CONFIG_CONTROL_DESIGN' ));
ENDSEC;

DATA;
#1 = ORIENTED_EDGE ( 'NONE', *, *, #90, .F. ) ;
#2 = PERSON_AND_ORGANIZATION_ROLE ( 'classification_officer' ) ;
#3 = DIRECTION ( 'NONE',  ( 0.0000000000000000000, 1.000000000000000000, 0.0000000000000000000 ) ) ;
#4 = PRODUCT ( '39944', '39944', '', ( #102 ) ) ;
#5 = CARTESIAN_POINT ( 'NONE',  ( 6.982962677686247975E-16, -2.453312193277549474E-17, 0.1999999999999994560 ) ) ;
#6 = FACE_OUTER_BOUND ( 'NONE', #38, .T. ) ;
#7 = EDGE_CURVE ( 'NONE', #210, #210, #140, .T. ) ;
#8 = CARTESIAN_POINT ( 'NONE',  ( 2.897929511239800811E-13, 3.749399456654634167E-32, 83.00000000000000000 ) ) ;
#9 = PERSON_AND_ORGANIZATION_ROLE ( 'creator' ) ;
#10 = CARTESIAN_POINT ( 'NONE',  ( 2.863014697851369604E-13, 5.999999999999996447, 82.00000000000000000 ) ) ;
#11 =( GEOMETRIC_REPRESENTATION_CONTEXT ( 3 ) GLOBAL_UNCERTAINTY_ASSIGNED_CONTEXT ( ( #115 ) ) GLOBAL_UNIT_ASSIGNED_CONTEXT ( ( #83, #116, #217 ) ) REPRESENTATION_CONTEXT ( 'NONE', 'WORKASPACE' ) );
#12 = PERSON_AND_ORGANIZATION ( #65, #206 ) ;
#13 = ADVANCED_FACE ( 'NONE', ( #75 ), #176, .T. ) ;
#14 = CC_DESIGN_APPROVAL ( #87, ( #178 ) ) ;
#15 = APPROVAL_STATUS ( 'not_yet_approved' ) ;
#16 = CIRCLE ( 'NONE', #80, 6.000000000000007105 ) ;
#17 = EDGE_LOOP ( 'NONE', ( #172 ) ) ;
#18 = ADVANCED_FACE ( 'NONE', ( #113, #162 ), #155, .T. ) ;
#19 = DIRECTION ( 'NONE',  ( 0.0000000000000000000, 1.000000000000000000, 0.0000000000000000000 ) ) ;
#20 = CYLINDRICAL_SURFACE ( 'NONE', #175, 5.999999999999998224 ) ;
#21 = AXIS2_PLACEMENT_3D ( 'NONE', #143, #112, #174 ) ;
#22 = LOCAL_TIME ( 10, 16, 9.000000000000000000, #154 ) ;
#23 = DIRECTION ( 'NONE',  ( -3.491481338843133355E-15, 1.224646799147353207E-16, -1.000000000000000000 ) ) ;
#24 = DIRECTION ( 'NONE',  ( -3.491481338843133355E-15, 1.224646799147353207E-16, -1.000000000000000000 ) ) ;
#25 = CYLINDRICAL_SURFACE ( 'NONE', #89, 6.000000000000003553 ) ;
#26 = CLOSED_SHELL ( 'NONE', ( #156, #202, #53, #78 ) ) ;
#27 = CARTESIAN_POINT ( 'NONE',  ( 2.897929511239800811E-13, 4.999999999999996447, 83.00000000000000000 ) ) ;
#28 = DATE_AND_TIME ( #152, #144 ) ;
#29 = SECURITY_CLASSIFICATION_LEVEL ( 'unclassified' ) ;
#30 = DATE_AND_TIME ( #105, #158 ) ;
#31 = APPLICATION_CONTEXT ( 'configuration controlled 3d designs of mechanical parts and assemblies' ) ;
#32 = EDGE_LOOP ( 'NONE', ( #204 ) ) ;
#33 = AXIS2_PLACEMENT_3D ( 'NONE', #93, #73, #3 ) ;
#34 = EDGE_LOOP ( 'NONE', ( #71 ) ) ;
#35 = EDGE_LOOP ( 'NONE', ( #139 ) ) ;
#36 = ADVANCED_FACE ( 'NONE', ( #145 ), #179, .F. ) ;
#37 = CC_DESIGN_SECURITY_CLASSIFICATION ( #123, ( #151 ) ) ;
#38 = EDGE_LOOP ( 'NONE', ( #142 ) ) ;
#39 = DIRECTION ( 'NONE',  ( 3.491481338843133355E-15, -1.224646799147353207E-16, 1.000000000000000000 ) ) ;
#40 = DIRECTION ( 'NONE',  ( 0.0000000000000000000, 1.000000000000000000, 0.0000000000000000000 ) ) ;
#41 = DIRECTION ( 'NONE',  ( -4.333342374871280669E-31, -1.000000000000000000, -1.219727444046192488E-16 ) ) ;
#42 = CIRCLE ( 'NONE', #216, 5.000000000000007105 ) ;
#43 = DIRECTION ( 'NONE',  ( -4.282846870592447371E-31, -1.000000000000000000, -1.226656096638776648E-16 ) ) ;
#44 = CARTESIAN_POINT ( 'NONE',  ( 6.982962677686247975E-16, -2.453312193277549474E-17, 0.1999999999999994560 ) ) ;
#45 = DATE_TIME_ROLE ( 'creation_date' ) ;
#46 = AXIS2_PLACEMENT_3D ( 'NONE', #147, #39, #131 ) ;
#47 = APPROVAL_DATE_TIME ( #104, #87 ) ;
#48 = VERTEX_POINT ( 'NONE', #150 ) ;
#49 = APPROVAL_ROLE ( '' ) ;
#50 = EDGE_CURVE ( 'NONE', #100, #100, #42, .T. ) ;
#51 = PERSON_AND_ORGANIZATION_ROLE ( 'creator' ) ;
#52 = EDGE_LOOP ( 'NONE', ( #1 ) ) ;
#53 = ADVANCED_FACE ( 'NONE', ( #109, #194 ), #128, .T. ) ;
#54 = ORIENTED_EDGE ( 'NONE', *, *, #195, .T. ) ;
#55 = CC_DESIGN_APPROVAL ( #180, ( #151 ) ) ;
#56 = CLOSED_SHELL ( 'NONE', ( #153, #13, #18, #36 ) ) ;
#57 = DIRECTION ( 'NONE',  ( 4.275831445896958607E-31, 1.000000000000000000, 1.224646799147353207E-16 ) ) ;
#58 = PLANE ( 'NONE',  #187 ) ;
#59 = CARTESIAN_POINT ( 'NONE',  ( 7.681258945454893382E-14, 4.499279347985568444E-32, 22.00000000000000000 ) ) ;
#60 = DIRECTION ( 'NONE',  ( 3.491481338843133355E-15, -1.226656096638776648E-16, 1.000000000000000000 ) ) ;
#61 = AXIS2_PLACEMENT_3D ( 'NONE', #5, #60, #41 ) ;
#62 = APPROVAL_PERSON_ORGANIZATION ( #12, #87, #49 ) ;
#63 = DIRECTION ( 'NONE',  ( -3.491481338843133355E-15, 1.224646799147353207E-16, -1.000000000000000000 ) ) ;
#64 = CARTESIAN_POINT ( 'NONE',  ( 7.681258945454893382E-14, 5.999999999999996447, 22.00000000000000000 ) ) ;
#65 = PERSON ( 'UNSPECIFIED', 'UNSPECIFIED', 'UNSPECIFIED', ('UNSPECIFIED'), ('UNSPECIFIED'), ('UNSPECIFIED') ) ;
#66 = PERSON_AND_ORGANIZATION ( #65, #206 ) ;
#67 = PERSON_AND_ORGANIZATION ( #65, #206 ) ;
#68 = DATE_AND_TIME ( #223, #22 ) ;
#69 = ORIENTED_EDGE ( 'NONE', *, *, #90, .T. ) ;
#70 = CIRCLE ( 'NONE', #184, 5.999999999999999112 ) ;
#71 = ORIENTED_EDGE ( 'NONE', *, *, #50, .F. ) ;
#72 = APPLICATION_CONTEXT ( 'configuration controlled 3d designs of mechanical parts and assemblies' ) ;
#73 = DIRECTION ( 'NONE',  ( -3.491481338843133355E-15, 1.224646799147353207E-16, -1.000000000000000000 ) ) ;
#74 = FACE_OUTER_BOUND ( 'NONE', #125, .T. ) ;
#75 = FACE_OUTER_BOUND ( 'NONE', #188, .T. ) ;
#76 = CC_DESIGN_DATE_AND_TIME_ASSIGNMENT ( #30, #205, ( #123 ) ) ;
#77 = FACE_OUTER_BOUND ( 'NONE', #120, .T. ) ;
#78 = ADVANCED_FACE ( 'NONE', ( #111 ), #177, .F. ) ;
#79 = CARTESIAN_POINT ( 'NONE',  ( 2.897929511239800811E-13, -1.016456843292303150E-14, 83.00000000000000000 ) ) ;
#80 = AXIS2_PLACEMENT_3D ( 'NONE', #95, #24, #19 ) ;
#81 = PERSON_AND_ORGANIZATION ( #65, #206 ) ;
#82 = CC_DESIGN_PERSON_AND_ORGANIZATION_ASSIGNMENT ( #167, #9, ( #178 ) ) ;
#83 =( LENGTH_UNIT ( ) NAMED_UNIT ( * ) SI_UNIT ( .MILLI., .METRE. ) );
#84 = CARTESIAN_POINT ( 'NONE',  ( -4.968102369887241017E-30, -5.800000000000002487, -1.422921072100981395E-15 ) ) ;
#85 = AXIS2_PLACEMENT_3D ( 'NONE', #181, #149, #219 ) ;
#86 = COORDINATED_UNIVERSAL_TIME_OFFSET ( 1, 0, .AHEAD. ) ;
#87 = APPROVAL ( #182, 'UNSPECIFIED' ) ;
#88 = APPROVAL_DATE_TIME ( #166, #180 ) ;
#89 = AXIS2_PLACEMENT_3D ( 'NONE', #148, #63, #196 ) ;
#90 = EDGE_CURVE ( 'NONE', #165, #165, #70, .T. ) ;
#91 = APPROVAL_PERSON_ORGANIZATION ( #141, #161, #207 ) ;
#92 = CC_DESIGN_PERSON_AND_ORGANIZATION_ASSIGNMENT ( #119, #186, ( #151 ) ) ;
#93 = CARTESIAN_POINT ( 'NONE',  ( 7.681258945454893382E-14, -2.694222958124176809E-15, 22.00000000000000000 ) ) ;
#94 = CIRCLE ( 'NONE', #122, 5.800000000000002487 ) ;
#95 = CARTESIAN_POINT ( 'NONE',  ( 2.863014697851369604E-13, -1.004210375300829793E-14, 82.00000000000000000 ) ) ;
#96 = CARTESIAN_POINT ( 'NONE',  ( 7.681258945454893382E-14, -2.694222958124176809E-15, 22.00000000000000000 ) ) ;
#97 = FACE_OUTER_BOUND ( 'NONE', #52, .T. ) ;
#98 = PRODUCT_RELATED_PRODUCT_CATEGORY ( 'detail', '', ( #4 ) ) ;
#99 = DIRECTION ( 'NONE',  ( 3.491481338843133355E-15, -1.226656096638776648E-16, 1.000000000000000000 ) ) ;
#100 = VERTEX_POINT ( 'NONE', #27 ) ;
#101 = APPROVAL_STATUS ( 'not_yet_approved' ) ;
#102 = MECHANICAL_CONTEXT ( 'NONE', #72, 'mechanical' ) ;
#103 = APPLICATION_PROTOCOL_DEFINITION ( 'international standard', 'config_control_design', 1994, #31 ) ;
#104 = DATE_AND_TIME ( #114, #129 ) ;
#105 = CALENDAR_DATE ( 2021, 1, 11 ) ;
#106 = MANIFOLD_SOLID_BREP ( 'Corps-Déplacer/Copier1[1]', #26 ) ;
#107 = AXIS2_PLACEMENT_3D ( 'NONE', #44, #99, #164 ) ;
#108 = CIRCLE ( 'NONE', #107, 6.000000000000000000 ) ;
#109 = FACE_OUTER_BOUND ( 'NONE', #32, .T. ) ;
#110 = CARTESIAN_POINT ( 'NONE',  ( -2.484051184943620509E-30, 6.067287630905565669E-32, -7.114605360504906973E-16 ) ) ;
#111 = FACE_OUTER_BOUND ( 'NONE', #34, .T. ) ;
#112 = DIRECTION ( 'NONE',  ( -3.491481338843133355E-15, 1.224646799147353207E-16, -1.000000000000000000 ) ) ;
#113 = FACE_BOUND ( 'NONE', #146, .T. ) ;
#114 = CALENDAR_DATE ( 2021, 1, 11 ) ;
#115 = UNCERTAINTY_MEASURE_WITH_UNIT (LENGTH_MEASURE( 1.000000000000000082E-05 ), #83, 'distance_accuracy_value', 'NONE');
#116 =( NAMED_UNIT ( * ) PLANE_ANGLE_UNIT ( ) SI_UNIT ( $, .RADIAN. ) );
#117 = VERTEX_POINT ( 'NONE', #84 ) ;
#118 = AXIS2_PLACEMENT_3D ( 'NONE', #8, #23, #173 ) ;
#119 = PERSON_AND_ORGANIZATION ( #65, #206 ) ;
#120 = EDGE_LOOP ( 'NONE', ( #69 ) ) ;
#121 = ORIENTED_EDGE ( 'NONE', *, *, #211, .T. ) ;
#122 = AXIS2_PLACEMENT_3D ( 'NONE', #110, #159, #43 ) ;
#123 = SECURITY_CLASSIFICATION ( '', '', #29 ) ;
#124 = SHAPE_DEFINITION_REPRESENTATION ( #127, #171 ) ;
#125 = EDGE_LOOP ( 'NONE', ( #121 ) ) ;
#126 = ORIENTED_EDGE ( 'NONE', *, *, #163, .T. ) ;
#127 = PRODUCT_DEFINITION_SHAPE ( 'NONE', 'NONE',  #178 ) ;
#128 = CONICAL_SURFACE ( 'NONE', #21, 5.000000000000007105, 0.7853981633974479459 ) ;
#129 = LOCAL_TIME ( 10, 16, 9.000000000000000000, #135 ) ;
#130 = CARTESIAN_POINT ( 'NONE',  ( 7.681258945454893382E-14, 4.499279347985568444E-32, 22.00000000000000000 ) ) ;
#131 = DIRECTION ( 'NONE',  ( -4.275831445896958607E-31, -1.000000000000000000, -1.224646799147353207E-16 ) ) ;
#132 = DIRECTION ( 'NONE',  ( 0.0000000000000000000, 1.000000000000000000, 0.0000000000000000000 ) ) ;
#133 = DIRECTION ( 'NONE',  ( 3.491481338843133355E-15, -1.224646799147353207E-16, 1.000000000000000000 ) ) ;
#134 = COORDINATED_UNIVERSAL_TIME_OFFSET ( 1, 0, .AHEAD. ) ;
#135 = COORDINATED_UNIVERSAL_TIME_OFFSET ( 1, 0, .AHEAD. ) ;
#136 = LOCAL_TIME ( 10, 16, 9.000000000000000000, #134 ) ;
#137 = CC_DESIGN_PERSON_AND_ORGANIZATION_ASSIGNMENT ( #67, #51, ( #151 ) ) ;
#138 = APPROVAL_PERSON_ORGANIZATION ( #66, #180, #201 ) ;
#139 = ORIENTED_EDGE ( 'NONE', *, *, #163, .F. ) ;
#140 = CIRCLE ( 'NONE', #33, 5.999999999999999112 ) ;
#141 = PERSON_AND_ORGANIZATION ( #65, #206 ) ;
#142 = ORIENTED_EDGE ( 'NONE', *, *, #7, .T. ) ;
#143 = CARTESIAN_POINT ( 'NONE',  ( 2.897929511239800811E-13, -1.016456843292303150E-14, 83.00000000000000000 ) ) ;
#144 = LOCAL_TIME ( 10, 16, 9.000000000000000000, #86 ) ;
#145 = FACE_OUTER_BOUND ( 'NONE', #35, .T. ) ;
#146 = EDGE_LOOP ( 'NONE', ( #126 ) ) ;
#147 = CARTESIAN_POINT ( 'NONE',  ( -3.206818868613519561E-31, 1.124800645273999227E-32, -9.184694281299141032E-17 ) ) ;
#148 = CARTESIAN_POINT ( 'NONE',  ( 0.0000000000000000000, 0.0000000000000000000, 0.0000000000000000000 ) ) ;
#149 = DIRECTION ( 'NONE',  ( 0.0000000000000000000, 0.0000000000000000000, 1.000000000000000000 ) ) ;
#150 = CARTESIAN_POINT ( 'NONE',  ( 6.982962677686222337E-16, -6.000000000000000000, 0.1999999999999987343 ) ) ;
#151 = PRODUCT_DEFINITION_FORMATION_WITH_SPECIFIED_SOURCE ( 'ANY', '', #4, .NOT_KNOWN. ) ;
#152 = CALENDAR_DATE ( 2021, 1, 11 ) ;
#153 = ADVANCED_FACE ( 'NONE', ( #6, #74 ), #20, .T. ) ;
#154 = COORDINATED_UNIVERSAL_TIME_OFFSET ( 1, 0, .AHEAD. ) ;
#155 = CONICAL_SURFACE ( 'NONE', #61, 6.000000000000000000, 0.7853981633974427279 ) ;
#156 = ADVANCED_FACE ( 'NONE', ( #77 ), #58, .F. ) ;
#157 = FACE_OUTER_BOUND ( 'NONE', #190, .T. ) ;
#158 = LOCAL_TIME ( 10, 16, 9.000000000000000000, #203 ) ;
#159 = DIRECTION ( 'NONE',  ( 3.491481338843133355E-15, -1.226656096638776648E-16, 1.000000000000000000 ) ) ;
#160 = DIRECTION ( 'NONE',  ( -3.491481338843133355E-15, 1.224646799147353207E-16, -1.000000000000000000 ) ) ;
#161 = APPROVAL ( #15, 'UNSPECIFIED' ) ;
#162 = FACE_OUTER_BOUND ( 'NONE', #208, .T. ) ;
#163 = EDGE_CURVE ( 'NONE', #117, #117, #94, .T. ) ;
#164 = DIRECTION ( 'NONE',  ( -4.333342374871280669E-31, -1.000000000000000000, -1.219727444046192488E-16 ) ) ;
#165 = VERTEX_POINT ( 'NONE', #199 ) ;
#166 = DATE_AND_TIME ( #220, #136 ) ;
#167 = PERSON_AND_ORGANIZATION ( #65, #206 ) ;
#168 = CC_DESIGN_DATE_AND_TIME_ASSIGNMENT ( #28, #45, ( #178 ) ) ;
#169 = APPROVAL_DATE_TIME ( #68, #161 ) ;
#170 = AXIS2_PLACEMENT_3D ( 'NONE', #59, #192, #191 ) ;
#171 = ADVANCED_BREP_SHAPE_REPRESENTATION ( '39944', ( #106, #183, #85 ), #11 ) ;
#172 = ORIENTED_EDGE ( 'NONE', *, *, #50, .T. ) ;
#173 = DIRECTION ( 'NONE',  ( 4.275831445896958607E-31, 1.000000000000000000, 1.224646799147353207E-16 ) ) ;
#174 = DIRECTION ( 'NONE',  ( 0.0000000000000000000, 1.000000000000000000, 0.0000000000000000000 ) ) ;
#175 = AXIS2_PLACEMENT_3D ( 'NONE', #212, #214, #57 ) ;
#176 = PLANE ( 'NONE',  #170 ) ;
#177 = PLANE ( 'NONE',  #118 ) ;
#178 = PRODUCT_DEFINITION ( 'UNKNOWN', '', #151, #218 ) ;
#179 = PLANE ( 'NONE',  #46 ) ;
#180 = APPROVAL ( #101, 'UNSPECIFIED' ) ;
#181 = CARTESIAN_POINT ( 'NONE',  ( 0.0000000000000000000, 0.0000000000000000000, 0.0000000000000000000 ) ) ;
#182 = APPROVAL_STATUS ( 'not_yet_approved' ) ;
#183 = MANIFOLD_SOLID_BREP ( 'Corps-Déplacer/Copier1[2]', #56 ) ;
#184 = AXIS2_PLACEMENT_3D ( 'NONE', #96, #160, #40 ) ;
#185 = VERTEX_POINT ( 'NONE', #10 ) ;
#186 = PERSON_AND_ORGANIZATION_ROLE ( 'design_supplier' ) ;
#187 = AXIS2_PLACEMENT_3D ( 'NONE', #130, #133, #213 ) ;
#188 = EDGE_LOOP ( 'NONE', ( #189 ) ) ;
#189 = ORIENTED_EDGE ( 'NONE', *, *, #7, .F. ) ;
#190 = EDGE_LOOP ( 'NONE', ( #54 ) ) ;
#191 = DIRECTION ( 'NONE',  ( -4.275831445896958607E-31, -1.000000000000000000, -1.224646799147353207E-16 ) ) ;
#192 = DIRECTION ( 'NONE',  ( 3.491481338843133355E-15, -1.224646799147353207E-16, 1.000000000000000000 ) ) ;
#193 = DIRECTION ( 'NONE',  ( -3.491481338843133355E-15, 1.224646799147353207E-16, -1.000000000000000000 ) ) ;
#194 = FACE_BOUND ( 'NONE', #17, .T. ) ;
#195 = EDGE_CURVE ( 'NONE', #185, #185, #16, .T. ) ;
#196 = DIRECTION ( 'NONE',  ( 4.275831445896958607E-31, 1.000000000000000000, 1.224646799147353207E-16 ) ) ;
#197 = PERSON_AND_ORGANIZATION_ROLE ( 'design_owner' ) ;
#198 = APPLICATION_PROTOCOL_DEFINITION ( 'international standard', 'config_control_design', 1994, #72 ) ;
#199 = CARTESIAN_POINT ( 'NONE',  ( 7.681258945454893382E-14, 5.999999999999996447, 22.00000000000000000 ) ) ;
#200 = CC_DESIGN_PERSON_AND_ORGANIZATION_ASSIGNMENT ( #81, #2, ( #123 ) ) ;
#201 = APPROVAL_ROLE ( '' ) ;
#202 = ADVANCED_FACE ( 'NONE', ( #97, #157 ), #25, .T. ) ;
#203 = COORDINATED_UNIVERSAL_TIME_OFFSET ( 1, 0, .AHEAD. ) ;
#204 = ORIENTED_EDGE ( 'NONE', *, *, #195, .F. ) ;
#205 = DATE_TIME_ROLE ( 'classification_date' ) ;
#206 = ORGANIZATION ( 'UNSPECIFIED', 'UNSPECIFIED', '' ) ;
#207 = APPROVAL_ROLE ( '' ) ;
#208 = EDGE_LOOP ( 'NONE', ( #209 ) ) ;
#209 = ORIENTED_EDGE ( 'NONE', *, *, #211, .F. ) ;
#210 = VERTEX_POINT ( 'NONE', #64 ) ;
#211 = EDGE_CURVE ( 'NONE', #48, #48, #108, .T. ) ;
#212 = CARTESIAN_POINT ( 'NONE',  ( 0.0000000000000000000, 0.0000000000000000000, 0.0000000000000000000 ) ) ;
#213 = DIRECTION ( 'NONE',  ( -4.275831445896958607E-31, -1.000000000000000000, -1.224646799147353207E-16 ) ) ;
#214 = DIRECTION ( 'NONE',  ( -3.491481338843133355E-15, 1.224646799147353207E-16, -1.000000000000000000 ) ) ;
#215 = PERSON_AND_ORGANIZATION ( #65, #206 ) ;
#216 = AXIS2_PLACEMENT_3D ( 'NONE', #79, #193, #132 ) ;
#217 =( NAMED_UNIT ( * ) SI_UNIT ( $, .STERADIAN. ) SOLID_ANGLE_UNIT ( ) );
#218 = DESIGN_CONTEXT ( 'detailed design', #31, 'design' ) ;
#219 = DIRECTION ( 'NONE',  ( 1.000000000000000000, 0.0000000000000000000, 0.0000000000000000000 ) ) ;
#220 = CALENDAR_DATE ( 2021, 1, 11 ) ;
#221 = CC_DESIGN_PERSON_AND_ORGANIZATION_ASSIGNMENT ( #215, #197, ( #4 ) ) ;
#222 = CC_DESIGN_APPROVAL ( #161, ( #123 ) ) ;
#223 = CALENDAR_DATE ( 2021, 1, 11 ) ;
ENDSEC;
END-ISO-10303-21;
