ISO-10303-21;
HEADER;
FILE_DESCRIPTION (( 'STEP AP203' ),
    '1' );
FILE_NAME ('39939.step',
    '2021-09-03T07:22:07',
    ( '' ),
    ( '' ),
    'SwSTEP 2.0',
    'SolidWorks 2019',
    '' );
FILE_SCHEMA (( 'CONFIG_CONTROL_DESIGN' ));
ENDSEC;

DATA;
#1 = EDGE_CURVE ( 'NONE', #131, #84, #300, .T. ) ;
#2 = LINE ( 'NONE', #130, #221 ) ;
#3 = CIRCLE ( 'NONE', #289, 1.675000000000000488 ) ;
#4 = ORIENTED_EDGE ( 'NONE', *, *, #26, .T. ) ;
#5 = CARTESIAN_POINT ( 'NONE',  ( 0.0000000000000000000, 0.0000000000000000000, 0.0000000000000000000 ) ) ;
#6 = CARTESIAN_POINT ( 'NONE',  ( 6.284666409917640040E-14, -2.204364238465235428E-15, 18.00000000000000000 ) ) ;
#7 = PERSON ( 'UNSPECIFIED', 'UNSPECIFIED', 'UNSPECIFIED', ('UNSPECIFIED'), ('UNSPECIFIED'), ('UNSPECIFIED') ) ;
#8 = AXIS2_PLACEMENT_3D ( 'NONE', #53, #168, #151 ) ;
#9 = ORIENTED_EDGE ( 'NONE', *, *, #324, .F. ) ;
#10 = ORIENTED_EDGE ( 'NONE', *, *, #134, .F. ) ;
#11 = EDGE_CURVE ( 'NONE', #33, #148, #143, .T. ) ;
#12 = VECTOR ( 'NONE', #145, 1000.000000000000000 ) ;
#13 = AXIS2_PLACEMENT_3D ( 'NONE', #48, #267, #321 ) ;
#14 = AXIS2_PLACEMENT_3D ( 'NONE', #311, #79, #184 ) ;
#15 = ORIENTED_EDGE ( 'NONE', *, *, #243, .T. ) ;
#16 = EDGE_LOOP ( 'NONE', ( #15, #278, #261, #180 ) ) ;
#17 = DIRECTION ( 'NONE',  ( -3.491481338843133355E-15, 1.224646799147353207E-16, -1.000000000000000000 ) ) ;
#18 = PERSON_AND_ORGANIZATION ( #7, #54 ) ;
#19 = CYLINDRICAL_SURFACE ( 'NONE', #100, 2.174999999999998046 ) ;
#20 = CARTESIAN_POINT ( 'NONE',  ( 1.320697812201426741E-13, -2.175000000000007372, 57.50000000000000000 ) ) ;
#21 = CC_DESIGN_APPROVAL ( #140, ( #332 ) ) ;
#22 = DIRECTION ( 'NONE',  ( -3.491481338843133355E-15, 1.224646799147353207E-16, -1.000000000000000000 ) ) ;
#23 = CC_DESIGN_PERSON_AND_ORGANIZATION_ASSIGNMENT ( #233, #237, ( #332 ) ) ;
#24 = AXIS2_PLACEMENT_3D ( 'NONE', #268, #222, #47 ) ;
#25 = CARTESIAN_POINT ( 'NONE',  ( 6.284666409917640040E-14, 2.174999999999993161, 18.00000000000000000 ) ) ;
#26 = EDGE_CURVE ( 'NONE', #179, #276, #220, .T. ) ;
#27 = FACE_OUTER_BOUND ( 'NONE', #335, .T. ) ;
#28 = CARTESIAN_POINT ( 'NONE',  ( 2.007601769834801742E-13, 2.174999999999993161, 57.50000000000000000 ) ) ;
#29 = ORIENTED_EDGE ( 'NONE', *, *, #243, .F. ) ;
#30 = CIRCLE ( 'NONE', #266, 1.675000000000000488 ) ;
#31 = CARTESIAN_POINT ( 'NONE',  ( 4.562918663912536944E-15, -1.600456423571125672E-16, 1.306871846384954017 ) ) ;
#32 = DIRECTION ( 'NONE',  ( -3.491481338843133355E-15, 1.224646799147353207E-16, -1.000000000000000000 ) ) ;
#33 = VERTEX_POINT ( 'NONE', #20 ) ;
#34 = DIRECTION ( 'NONE',  ( 4.275831445896959482E-31, 1.000000000000000000, 1.224646799147353207E-16 ) ) ;
#35 = DATE_TIME_ROLE ( 'creation_date' ) ;
#36 = ORIENTED_EDGE ( 'NONE', *, *, #286, .F. ) ;
#37 = APPROVAL_PERSON_ORGANIZATION ( #213, #140, #318 ) ;
#38 = CALENDAR_DATE ( 2021, 3, 9 ) ;
#39 = FACE_OUTER_BOUND ( 'NONE', #87, .T. ) ;
#40 = EDGE_CURVE ( 'NONE', #276, #204, #272, .T. ) ;
#41 = DATE_AND_TIME ( #121, #177 ) ;
#42 = CARTESIAN_POINT ( 'NONE',  ( 6.284666409917640040E-14, 1.630988763644763443E-32, 18.00000000000000000 ) ) ;
#43 = AXIS2_PLACEMENT_3D ( 'NONE', #107, #85, #64 ) ;
#44 = DATE_AND_TIME ( #66, #183 ) ;
#45 = ORIENTED_EDGE ( 'NONE', *, *, #286, .T. ) ;
#46 = FACE_OUTER_BOUND ( 'NONE', #159, .T. ) ;
#47 = DIRECTION ( 'NONE',  ( -4.275831445896958607E-31, -1.000000000000000000, -1.224646799147353207E-16 ) ) ;
#48 = CARTESIAN_POINT ( 'NONE',  ( 4.562918663912536944E-15, -1.600456423571125672E-16, 1.306871846384954017 ) ) ;
#49 = SECURITY_CLASSIFICATION ( '', '', #239 ) ;
#50 = APPROVAL_STATUS ( 'not_yet_approved' ) ;
#51 = CARTESIAN_POINT ( 'NONE',  ( 1.320697812201427750E-13, -2.174999999999997602, 18.00000000000000000 ) ) ;
#52 = EDGE_CURVE ( 'NONE', #84, #225, #317, .T. ) ;
#53 = CARTESIAN_POINT ( 'NONE',  ( 0.0000000000000000000, 0.0000000000000000000, 0.0000000000000000000 ) ) ;
#54 = ORGANIZATION ( 'UNSPECIFIED', 'UNSPECIFIED', '' ) ;
#55 = CYLINDRICAL_SURFACE ( 'NONE', #275, 2.174999999999994493 ) ;
#56 = CYLINDRICAL_SURFACE ( 'NONE', #114, 2.174999999999994493 ) ;
#57 = CARTESIAN_POINT ( 'NONE',  ( 4.562918663912536155E-15, -2.174999999999993161, 1.306871846384954017 ) ) ;
#58 = DIRECTION ( 'NONE',  ( -3.491481338843133355E-15, 1.224646799147353207E-16, -1.000000000000000000 ) ) ;
#59 = VECTOR ( 'NONE', #22, 1000.000000000000000 ) ;
#60 = CIRCLE ( 'NONE', #142, 2.174999999999995381 ) ;
#61 = FACE_OUTER_BOUND ( 'NONE', #16, .T. ) ;
#62 = CARTESIAN_POINT ( 'NONE',  ( 4.829279342727086207E-15, 2.174999999999993161, 1.306871846384954239 ) ) ;
#63 = CONICAL_SURFACE ( 'NONE', #14, 2.174999999999993161, 1.029744258676649649 ) ;
#64 = DIRECTION ( 'NONE',  ( 0.0000000000000000000, 1.000000000000000000, 0.0000000000000000000 ) ) ;
#65 = PLANE ( 'NONE',  #149 ) ;
#66 = CALENDAR_DATE ( 2021, 3, 9 ) ;
#67 = ORIENTED_EDGE ( 'NONE', *, *, #299, .F. ) ;
#68 = PRODUCT_DEFINITION ( 'UNKNOWN', '', #332, #327 ) ;
#69 = CARTESIAN_POINT ( 'NONE',  ( 4.562918663912536155E-15, -2.174999999999993161, 1.306871846384954017 ) ) ;
#70 = DIRECTION ( 'NONE',  ( 0.0000000000000000000, 1.000000000000000000, 0.0000000000000000000 ) ) ;
#71 = ORIENTED_EDGE ( 'NONE', *, *, #26, .F. ) ;
#72 = CC_DESIGN_SECURITY_CLASSIFICATION ( #49, ( #332 ) ) ;
#73 = DIRECTION ( 'NONE',  ( 4.275831445896958607E-31, 1.000000000000000000, 1.224646799147353454E-16 ) ) ;
#74 = DIRECTION ( 'NONE',  ( -3.491481338843133355E-15, 1.224646799147353207E-16, -1.000000000000000000 ) ) ;
#75 = CC_DESIGN_PERSON_AND_ORGANIZATION_ASSIGNMENT ( #211, #316, ( #332 ) ) ;
#76 = COORDINATED_UNIVERSAL_TIME_OFFSET ( 1, 0, .AHEAD. ) ;
#77 = ORIENTED_EDGE ( 'NONE', *, *, #134, .T. ) ;
#78 = CONICAL_SURFACE ( 'NONE', #103, 1.675000000000000488, 0.7853981633974476129 ) ;
#79 = DIRECTION ( 'NONE',  ( 3.491481338843133355E-15, -1.224646799147353207E-16, 1.000000000000000000 ) ) ;
#80 = CARTESIAN_POINT ( 'NONE',  ( 2.663606788145477344E-16, -2.174999999999994493, -2.663606788145495586E-16 ) ) ;
#81 = CALENDAR_DATE ( 2021, 3, 9 ) ;
#82 = EDGE_CURVE ( 'NONE', #148, #204, #141, .T. ) ;
#83 = DIRECTION ( 'NONE',  ( 0.0000000000000000000, 1.000000000000000000, 0.0000000000000000000 ) ) ;
#84 = VERTEX_POINT ( 'NONE', #62 ) ;
#85 = DIRECTION ( 'NONE',  ( -3.491481338843133355E-15, 1.224646799147353207E-16, -1.000000000000000000 ) ) ;
#86 = CC_DESIGN_APPROVAL ( #106, ( #49 ) ) ;
#87 = EDGE_LOOP ( 'NONE', ( #296, #290 ) ) ;
#88 = AXIS2_PLACEMENT_3D ( 'NONE', #312, #32, #185 ) ;
#89 = EDGE_LOOP ( 'NONE', ( #96, #99, #161, #158 ) ) ;
#90 = EDGE_CURVE ( 'NONE', #235, #131, #182, .T. ) ;
#91 = CARTESIAN_POINT ( 'NONE',  ( 2.018687918270268025E-13, -1.675000000000007594, 58.00000000000000000 ) ) ;
#92 = CARTESIAN_POINT ( 'NONE',  ( 2.025059176529017346E-13, 1.256048817979295483E-32, 58.00000000000000000 ) ) ;
#93 = CLOSED_SHELL ( 'NONE', ( #169, #178, #232, #314, #129 ) ) ;
#94 = LOCAL_TIME ( 9, 22, 7.000000000000000000, #331 ) ;
#95 = CARTESIAN_POINT ( 'NONE',  ( 4.562918663912536944E-15, -1.600456423571125672E-16, 1.306871846384954017 ) ) ;
#96 = ORIENTED_EDGE ( 'NONE', *, *, #116, .F. ) ;
#97 = PLANE ( 'NONE',  #24 ) ;
#98 = ORIENTED_EDGE ( 'NONE', *, *, #82, .F. ) ;
#99 = ORIENTED_EDGE ( 'NONE', *, *, #90, .T. ) ;
#100 = AXIS2_PLACEMENT_3D ( 'NONE', #196, #162, #73 ) ;
#101 = DIRECTION ( 'NONE',  ( -3.491481338843133355E-15, 1.224646799147353207E-16, -1.000000000000000000 ) ) ;
#102 = EDGE_CURVE ( 'NONE', #131, #235, #310, .T. ) ;
#103 = AXIS2_PLACEMENT_3D ( 'NONE', #117, #218, #152 ) ;
#104 = ADVANCED_FACE ( 'NONE', ( #61 ), #262, .T. ) ;
#105 = DATE_AND_TIME ( #38, #165 ) ;
#106 = APPROVAL ( #167, 'UNSPECIFIED' ) ;
#107 = CARTESIAN_POINT ( 'NONE',  ( 6.284666409917640040E-14, -2.204364238465235428E-15, 18.00000000000000000 ) ) ;
#108 = CONICAL_SURFACE ( 'NONE', #203, 1.675000000000000488, 0.7853981633974476129 ) ;
#109 = APPROVAL_STATUS ( 'not_yet_approved' ) ;
#110 = ADVANCED_FACE ( 'NONE', ( #337 ), #108, .T. ) ;
#111 = APPROVAL_ROLE ( '' ) ;
#112 = CALENDAR_DATE ( 2021, 3, 9 ) ;
#113 = CARTESIAN_POINT ( 'NONE',  ( 2.025059176529017346E-13, -7.102951435054648059E-15, 58.00000000000000000 ) ) ;
#114 = AXIS2_PLACEMENT_3D ( 'NONE', #208, #258, #34 ) ;
#115 = SHAPE_DEFINITION_REPRESENTATION ( #259, #144 ) ;
#116 = EDGE_CURVE ( 'NONE', #235, #225, #181, .T. ) ;
#117 = CARTESIAN_POINT ( 'NONE',  ( 2.025059176529017346E-13, -7.102951435054648059E-15, 58.00000000000000000 ) ) ;
#118 = ORIENTED_EDGE ( 'NONE', *, *, #102, .T. ) ;
#119 = MECHANICAL_CONTEXT ( 'NONE', #303, 'mechanical' ) ;
#120 = CIRCLE ( 'NONE', #128, 2.175000000000000266 ) ;
#121 = CALENDAR_DATE ( 2021, 3, 9 ) ;
#122 = EDGE_LOOP ( 'NONE', ( #67, #325, #4, #187 ) ) ;
#123 = PRODUCT ( '39939', '39939', '', ( #119 ) ) ;
#124 = LINE ( 'NONE', #228, #188 ) ;
#125 = PRODUCT_RELATED_PRODUCT_CATEGORY ( 'detail', '', ( #123 ) ) ;
#126 = ORIENTED_EDGE ( 'NONE', *, *, #102, .F. ) ;
#127 = VERTEX_POINT ( 'NONE', #91 ) ;
#128 = AXIS2_PLACEMENT_3D ( 'NONE', #210, #277, #308 ) ;
#129 = ADVANCED_FACE ( 'NONE', ( #253 ), #97, .T. ) ;
#130 = CARTESIAN_POINT ( 'NONE',  ( 2.027110459917589179E-13, -1.675000000000007594, 58.00000000000000000 ) ) ;
#131 = VERTEX_POINT ( 'NONE', #271 ) ;
#132 = FACE_OUTER_BOUND ( 'NONE', #304, .T. ) ;
#133 = DIRECTION ( 'NONE',  ( 1.798245827342160317E-15, -0.8571673007021098911, 0.5150380749100582634 ) ) ;
#134 = EDGE_CURVE ( 'NONE', #179, #127, #30, .T. ) ;
#135 = COORDINATED_UNIVERSAL_TIME_OFFSET ( 1, 0, .AHEAD. ) ;
#136 = CIRCLE ( 'NONE', #313, 2.174999999999993161 ) ;
#137 = APPROVAL_DATE_TIME ( #105, #140 ) ;
#138 = DIRECTION ( 'NONE',  ( -3.491481338843133355E-15, 1.224646799147353207E-16, -1.000000000000000000 ) ) ;
#139 = ORIENTED_EDGE ( 'NONE', *, *, #90, .F. ) ;
#140 = APPROVAL ( #109, 'UNSPECIFIED' ) ;
#141 = CIRCLE ( 'NONE', #330, 2.174999999999995381 ) ;
#142 = AXIS2_PLACEMENT_3D ( 'NONE', #291, #138, #83 ) ;
#143 = LINE ( 'NONE', #245, #12 ) ;
#144 = ADVANCED_BREP_SHAPE_REPRESENTATION ( '39939', ( #164, #160, #8 ), #242 ) ;
#145 = DIRECTION ( 'NONE',  ( -3.491481338843133355E-15, 1.224646799147353207E-16, -1.000000000000000000 ) ) ;
#146 = PERSON_AND_ORGANIZATION ( #7, #54 ) ;
#147 = APPLICATION_PROTOCOL_DEFINITION ( 'international standard', 'config_control_design', 1994, #303 ) ;
#148 = VERTEX_POINT ( 'NONE', #51 ) ;
#149 = AXIS2_PLACEMENT_3D ( 'NONE', #42, #255, #172 ) ;
#150 = APPROVAL_ROLE ( '' ) ;
#151 = DIRECTION ( 'NONE',  ( 1.000000000000000000, 0.0000000000000000000, 0.0000000000000000000 ) ) ;
#152 = DIRECTION ( 'NONE',  ( 0.0000000000000000000, 1.000000000000000000, 0.0000000000000000000 ) ) ;
#153 = CONICAL_SURFACE ( 'NONE', #13, 2.174999999999993161, 1.029744258676649649 ) ;
#154 = DIRECTION ( 'NONE',  ( -3.491481338843133355E-15, 1.224646799147353207E-16, -1.000000000000000000 ) ) ;
#155 = ORIENTED_EDGE ( 'NONE', *, *, #189, .T. ) ;
#156 = CARTESIAN_POINT ( 'NONE',  ( 2.025059176529017346E-13, -7.102951435054648059E-15, 58.00000000000000000 ) ) ;
#157 = ADVANCED_FACE ( 'NONE', ( #251 ), #334, .F. ) ;
#158 = ORIENTED_EDGE ( 'NONE', *, *, #305, .F. ) ;
#159 = EDGE_LOOP ( 'NONE', ( #315, #294, #241, #98 ) ) ;
#160 = MANIFOLD_SOLID_BREP ( 'Corps-Déplacer/Copier1[2]', #93 ) ;
#161 = ORIENTED_EDGE ( 'NONE', *, *, #1, .T. ) ;
#162 = DIRECTION ( 'NONE',  ( -3.491481338843133355E-15, 1.224646799147353207E-16, -1.000000000000000000 ) ) ;
#163 = EDGE_CURVE ( 'NONE', #33, #276, #120, .T. ) ;
#164 = MANIFOLD_SOLID_BREP ( 'Corps-Déplacer/Copier1[1]', #270 ) ;
#165 = LOCAL_TIME ( 9, 22, 7.000000000000000000, #135 ) ;
#166 = DIRECTION ( 'NONE',  ( -3.491481338843133355E-15, 1.224646799147353207E-16, -1.000000000000000000 ) ) ;
#167 = APPROVAL_STATUS ( 'not_yet_approved' ) ;
#168 = DIRECTION ( 'NONE',  ( 0.0000000000000000000, 0.0000000000000000000, 1.000000000000000000 ) ) ;
#169 = ADVANCED_FACE ( 'NONE', ( #132 ), #56, .T. ) ;
#170 = CARTESIAN_POINT ( 'NONE',  ( 9.299933394825862943E-31, 2.174999999999994493, 2.663606788145486711E-16 ) ) ;
#171 = PERSON_AND_ORGANIZATION_ROLE ( 'design_owner' ) ;
#172 = DIRECTION ( 'NONE',  ( -4.275831445896958607E-31, -1.000000000000000000, -1.224646799147353207E-16 ) ) ;
#173 = FACE_OUTER_BOUND ( 'NONE', #122, .T. ) ;
#174 = DIRECTION ( 'NONE',  ( 4.275831445896958607E-31, 1.000000000000000000, 1.224646799147353207E-16 ) ) ;
#175 = ORIENTED_EDGE ( 'NONE', *, *, #52, .F. ) ;
#176 = DIRECTION ( 'NONE',  ( 3.541940127608720890E-31, 1.000000000000000000, 9.969675149292026531E-17 ) ) ;
#177 = LOCAL_TIME ( 9, 22, 7.000000000000000000, #254 ) ;
#178 = ADVANCED_FACE ( 'NONE', ( #27 ), #63, .T. ) ;
#179 = VERTEX_POINT ( 'NONE', #285 ) ;
#180 = ORIENTED_EDGE ( 'NONE', *, *, #40, .F. ) ;
#181 = LINE ( 'NONE', #80, #293 ) ;
#182 = CIRCLE ( 'NONE', #43, 2.174999999999995381 ) ;
#183 = LOCAL_TIME ( 9, 22, 7.000000000000000000, #244 ) ;
#184 = DIRECTION ( 'NONE',  ( -3.541940127608720890E-31, -1.000000000000000000, -9.969675149292026531E-17 ) ) ;
#185 = DIRECTION ( 'NONE',  ( 4.275831445896958607E-31, 1.000000000000000000, 1.224646799147353454E-16 ) ) ;
#186 = DATE_AND_TIME ( #81, #216 ) ;
#187 = ORIENTED_EDGE ( 'NONE', *, *, #163, .F. ) ;
#188 = VECTOR ( 'NONE', #224, 999.9999999999998863 ) ;
#189 = EDGE_CURVE ( 'NONE', #195, #225, #263, .T. ) ;
#190 = PERSON_AND_ORGANIZATION ( #7, #54 ) ;
#191 = EDGE_CURVE ( 'NONE', #204, #148, #60, .T. ) ;
#192 = EDGE_LOOP ( 'NONE', ( #126, #139 ) ) ;
#193 = AXIS2_PLACEMENT_3D ( 'NONE', #6, #205, #209 ) ;
#194 = UNCERTAINTY_MEASURE_WITH_UNIT (LENGTH_MEASURE( 1.000000000000000082E-05 ), #238, 'distance_accuracy_value', 'NONE');
#195 = VERTEX_POINT ( 'NONE', #287 ) ;
#196 = CARTESIAN_POINT ( 'NONE',  ( 0.0000000000000000000, 0.0000000000000000000, 0.0000000000000000000 ) ) ;
#197 = APPLICATION_CONTEXT ( 'configuration controlled 3d designs of mechanical parts and assemblies' ) ;
#198 = VECTOR ( 'NONE', #328, 1000.000000000000000 ) ;
#199 = VECTOR ( 'NONE', #133, 1000.000000000000000 ) ;
#200 = CC_DESIGN_DATE_AND_TIME_ASSIGNMENT ( #41, #35, ( #68 ) ) ;
#201 = ORIENTED_EDGE ( 'NONE', *, *, #299, .T. ) ;
#202 = ADVANCED_FACE ( 'NONE', ( #39 ), #65, .F. ) ;
#203 = AXIS2_PLACEMENT_3D ( 'NONE', #156, #74, #306 ) ;
#204 = VERTEX_POINT ( 'NONE', #25 ) ;
#205 = DIRECTION ( 'NONE',  ( -3.491481338843133355E-15, 1.224646799147353207E-16, -1.000000000000000000 ) ) ;
#206 = PERSON_AND_ORGANIZATION ( #7, #54 ) ;
#207 = EDGE_LOOP ( 'NONE', ( #77, #201, #29, #71 ) ) ;
#208 = CARTESIAN_POINT ( 'NONE',  ( 0.0000000000000000000, 0.0000000000000000000, 0.0000000000000000000 ) ) ;
#209 = DIRECTION ( 'NONE',  ( 0.0000000000000000000, 1.000000000000000000, 0.0000000000000000000 ) ) ;
#210 = CARTESIAN_POINT ( 'NONE',  ( 2.007601769834801742E-13, -7.041719095097280485E-15, 57.50000000000000000 ) ) ;
#211 = PERSON_AND_ORGANIZATION ( #7, #54 ) ;
#212 = AXIS2_PLACEMENT_3D ( 'NONE', #92, #219, #174 ) ;
#213 = PERSON_AND_ORGANIZATION ( #7, #54 ) ;
#214 =( NAMED_UNIT ( * ) SI_UNIT ( $, .STERADIAN. ) SOLID_ANGLE_UNIT ( ) );
#215 = APPROVAL_DATE_TIME ( #44, #106 ) ;
#216 = LOCAL_TIME ( 9, 22, 7.000000000000000000, #76 ) ;
#217 = CARTESIAN_POINT ( 'NONE',  ( 6.284666409917640040E-14, -2.204364238465235428E-15, 18.00000000000000000 ) ) ;
#218 = DIRECTION ( 'NONE',  ( -3.491481338843133355E-15, 1.224646799147353207E-16, -1.000000000000000000 ) ) ;
#219 = DIRECTION ( 'NONE',  ( -3.491481338843133355E-15, 1.224646799147353207E-16, -1.000000000000000000 ) ) ;
#220 = LINE ( 'NONE', #246, #298 ) ;
#221 = VECTOR ( 'NONE', #301, 999.9999999999998863 ) ;
#222 = DIRECTION ( 'NONE',  ( 3.491481338843133355E-15, -1.224646799147353207E-16, 1.000000000000000000 ) ) ;
#223 = ORIENTED_EDGE ( 'NONE', *, *, #52, .T. ) ;
#224 = DIRECTION ( 'NONE',  ( 1.903218546456022717E-15, 0.8571673007021097801, 0.5150380749100585964 ) ) ;
#225 = VERTEX_POINT ( 'NONE', #69 ) ;
#226 = CARTESIAN_POINT ( 'NONE',  ( 2.025059176529017346E-13, -7.102951435054648059E-15, 58.00000000000000000 ) ) ;
#227 = APPROVAL_DATE_TIME ( #230, #260 ) ;
#228 = CARTESIAN_POINT ( 'NONE',  ( 4.829279342727086207E-15, 2.174999999999993161, 1.306871846384954239 ) ) ;
#229 = APPROVAL_PERSON_ORGANIZATION ( #326, #106, #111 ) ;
#230 = DATE_AND_TIME ( #112, #94 ) ;
#231 = FACE_OUTER_BOUND ( 'NONE', #89, .T. ) ;
#232 = ADVANCED_FACE ( 'NONE', ( #273 ), #153, .T. ) ;
#233 = PERSON_AND_ORGANIZATION ( #7, #54 ) ;
#234 = CIRCLE ( 'NONE', #302, 2.175000000000000266 ) ;
#235 = VERTEX_POINT ( 'NONE', #333 ) ;
#236 = ADVANCED_FACE ( 'NONE', ( #173 ), #78, .T. ) ;
#237 = PERSON_AND_ORGANIZATION_ROLE ( 'design_supplier' ) ;
#238 =( LENGTH_UNIT ( ) NAMED_UNIT ( * ) SI_UNIT ( .MILLI., .METRE. ) );
#239 = SECURITY_CLASSIFICATION_LEVEL ( 'unclassified' ) ;
#240 = CC_DESIGN_DATE_AND_TIME_ASSIGNMENT ( #186, #288, ( #49 ) ) ;
#241 = ORIENTED_EDGE ( 'NONE', *, *, #40, .T. ) ;
#242 =( GEOMETRIC_REPRESENTATION_CONTEXT ( 3 ) GLOBAL_UNCERTAINTY_ASSIGNED_CONTEXT ( ( #194 ) ) GLOBAL_UNIT_ASSIGNED_CONTEXT ( ( #238, #320, #214 ) ) REPRESENTATION_CONTEXT ( 'NONE', 'WORKASPACE' ) );
#243 = EDGE_CURVE ( 'NONE', #276, #33, #234, .T. ) ;
#244 = COORDINATED_UNIVERSAL_TIME_OFFSET ( 1, 0, .AHEAD. ) ;
#245 = CARTESIAN_POINT ( 'NONE',  ( 2.663606788145481781E-16, -2.174999999999998046, -2.663606788145500023E-16 ) ) ;
#246 = CARTESIAN_POINT ( 'NONE',  ( 2.025059176529017346E-13, 1.674999999999993383, 58.00000000000000000 ) ) ;
#247 = ORIENTED_EDGE ( 'NONE', *, *, #189, .F. ) ;
#248 = DIRECTION ( 'NONE',  ( 0.0000000000000000000, 1.000000000000000000, 0.0000000000000000000 ) ) ;
#249 = EDGE_LOOP ( 'NONE', ( #10, #9 ) ) ;
#250 = CARTESIAN_POINT ( 'NONE',  ( 2.007601769834801742E-13, -7.041719095097280485E-15, 57.50000000000000000 ) ) ;
#251 = FACE_OUTER_BOUND ( 'NONE', #249, .T. ) ;
#252 = DIRECTION ( 'NONE',  ( -3.491481338843133355E-15, 1.224646799147353207E-16, -1.000000000000000000 ) ) ;
#253 = FACE_OUTER_BOUND ( 'NONE', #192, .T. ) ;
#254 = COORDINATED_UNIVERSAL_TIME_OFFSET ( 1, 0, .AHEAD. ) ;
#255 = DIRECTION ( 'NONE',  ( 3.491481338843133355E-15, -1.224646799147353207E-16, 1.000000000000000000 ) ) ;
#256 = DIRECTION ( 'NONE',  ( 4.275831445896959482E-31, 1.000000000000000000, 1.224646799147353207E-16 ) ) ;
#257 = ORIENTED_EDGE ( 'NONE', *, *, #305, .T. ) ;
#258 = DIRECTION ( 'NONE',  ( -3.491481338843133355E-15, 1.224646799147353207E-16, -1.000000000000000000 ) ) ;
#259 = PRODUCT_DEFINITION_SHAPE ( 'NONE', 'NONE',  #68 ) ;
#260 = APPROVAL ( #50, 'UNSPECIFIED' ) ;
#261 = ORIENTED_EDGE ( 'NONE', *, *, #191, .F. ) ;
#262 = CYLINDRICAL_SURFACE ( 'NONE', #88, 2.174999999999998046 ) ;
#263 = LINE ( 'NONE', #57, #199 ) ;
#264 = ADVANCED_FACE ( 'NONE', ( #46 ), #19, .T. ) ;
#265 = PERSON_AND_ORGANIZATION_ROLE ( 'classification_officer' ) ;
#266 = AXIS2_PLACEMENT_3D ( 'NONE', #113, #274, #248 ) ;
#267 = DIRECTION ( 'NONE',  ( 3.491481338843133355E-15, -1.224646799147353207E-16, 1.000000000000000000 ) ) ;
#268 = CARTESIAN_POINT ( 'NONE',  ( 6.284666409917640040E-14, 1.630988763644763443E-32, 18.00000000000000000 ) ) ;
#269 = APPLICATION_PROTOCOL_DEFINITION ( 'international standard', 'config_control_design', 1994, #197 ) ;
#270 = CLOSED_SHELL ( 'NONE', ( #110, #104, #202, #264, #236, #157 ) ) ;
#271 = CARTESIAN_POINT ( 'NONE',  ( 6.284666409917640040E-14, 2.174999999999993161, 18.00000000000000000 ) ) ;
#272 = LINE ( 'NONE', #329, #198 ) ;
#273 = FACE_OUTER_BOUND ( 'NONE', #307, .T. ) ;
#274 = DIRECTION ( 'NONE',  ( -3.491481338843133355E-15, 1.224646799147353207E-16, -1.000000000000000000 ) ) ;
#275 = AXIS2_PLACEMENT_3D ( 'NONE', #5, #154, #256 ) ;
#276 = VERTEX_POINT ( 'NONE', #28 ) ;
#277 = DIRECTION ( 'NONE',  ( -3.491481338843133355E-15, 1.224646799147353207E-16, -1.000000000000000000 ) ) ;
#278 = ORIENTED_EDGE ( 'NONE', *, *, #11, .T. ) ;
#279 = DIRECTION ( 'NONE',  ( 0.0000000000000000000, 1.000000000000000000, 0.0000000000000000000 ) ) ;
#280 = CC_DESIGN_PERSON_AND_ORGANIZATION_ASSIGNMENT ( #206, #309, ( #68 ) ) ;
#281 = ORIENTED_EDGE ( 'NONE', *, *, #1, .F. ) ;
#282 = AXIS2_PLACEMENT_3D ( 'NONE', #95, #17, #322 ) ;
#283 = CC_DESIGN_APPROVAL ( #260, ( #68 ) ) ;
#284 = ORIENTED_EDGE ( 'NONE', *, *, #116, .T. ) ;
#285 = CARTESIAN_POINT ( 'NONE',  ( 2.025059176529017346E-13, 1.674999999999993383, 58.00000000000000000 ) ) ;
#286 = EDGE_CURVE ( 'NONE', #195, #84, #124, .T. ) ;
#287 = CARTESIAN_POINT ( 'NONE',  ( 0.0000000000000000000, 0.0000000000000000000, 0.0000000000000000000 ) ) ;
#288 = DATE_TIME_ROLE ( 'classification_date' ) ;
#289 = AXIS2_PLACEMENT_3D ( 'NONE', #226, #101, #279 ) ;
#290 = ORIENTED_EDGE ( 'NONE', *, *, #82, .T. ) ;
#291 = CARTESIAN_POINT ( 'NONE',  ( 6.284666409917640040E-14, -2.204364238465235428E-15, 18.00000000000000000 ) ) ;
#292 = CC_DESIGN_PERSON_AND_ORGANIZATION_ASSIGNMENT ( #190, #265, ( #49 ) ) ;
#293 = VECTOR ( 'NONE', #166, 1000.000000000000000 ) ;
#294 = ORIENTED_EDGE ( 'NONE', *, *, #163, .T. ) ;
#295 = DIRECTION ( 'NONE',  ( -2.468850131082267316E-15, 0.7071067811865471286, -0.7071067811865479058 ) ) ;
#296 = ORIENTED_EDGE ( 'NONE', *, *, #191, .T. ) ;
#297 = DIRECTION ( 'NONE',  ( 0.0000000000000000000, 1.000000000000000000, 0.0000000000000000000 ) ) ;
#298 = VECTOR ( 'NONE', #295, 1000.000000000000000 ) ;
#299 = EDGE_CURVE ( 'NONE', #127, #33, #2, .T. ) ;
#300 = LINE ( 'NONE', #170, #59 ) ;
#301 = DIRECTION ( 'NONE',  ( -2.382254525458718258E-15, -0.7071067811865469066, -0.7071067811865482389 ) ) ;
#302 = AXIS2_PLACEMENT_3D ( 'NONE', #250, #252, #297 ) ;
#303 = APPLICATION_CONTEXT ( 'configuration controlled 3d designs of mechanical parts and assemblies' ) ;
#304 = EDGE_LOOP ( 'NONE', ( #118, #284, #175, #281 ) ) ;
#305 = EDGE_CURVE ( 'NONE', #225, #84, #136, .T. ) ;
#306 = DIRECTION ( 'NONE',  ( 0.0000000000000000000, 1.000000000000000000, 0.0000000000000000000 ) ) ;
#307 = EDGE_LOOP ( 'NONE', ( #36, #155, #257 ) ) ;
#308 = DIRECTION ( 'NONE',  ( 0.0000000000000000000, 1.000000000000000000, 0.0000000000000000000 ) ) ;
#309 = PERSON_AND_ORGANIZATION_ROLE ( 'creator' ) ;
#310 = CIRCLE ( 'NONE', #193, 2.174999999999995381 ) ;
#311 = CARTESIAN_POINT ( 'NONE',  ( 4.562918663912536944E-15, -1.600456423571125672E-16, 1.306871846384954017 ) ) ;
#312 = CARTESIAN_POINT ( 'NONE',  ( 0.0000000000000000000, 0.0000000000000000000, 0.0000000000000000000 ) ) ;
#313 = AXIS2_PLACEMENT_3D ( 'NONE', #31, #336, #176 ) ;
#314 = ADVANCED_FACE ( 'NONE', ( #231 ), #55, .T. ) ;
#315 = ORIENTED_EDGE ( 'NONE', *, *, #11, .F. ) ;
#316 = PERSON_AND_ORGANIZATION_ROLE ( 'creator' ) ;
#317 = CIRCLE ( 'NONE', #282, 2.174999999999993161 ) ;
#318 = APPROVAL_ROLE ( '' ) ;
#319 = CC_DESIGN_PERSON_AND_ORGANIZATION_ASSIGNMENT ( #146, #171, ( #123 ) ) ;
#320 =( NAMED_UNIT ( * ) PLANE_ANGLE_UNIT ( ) SI_UNIT ( $, .RADIAN. ) );
#321 = DIRECTION ( 'NONE',  ( -3.541940127608720890E-31, -1.000000000000000000, -9.969675149292026531E-17 ) ) ;
#322 = DIRECTION ( 'NONE',  ( 3.541940127608720890E-31, 1.000000000000000000, 9.969675149292026531E-17 ) ) ;
#323 = APPROVAL_PERSON_ORGANIZATION ( #18, #260, #150 ) ;
#324 = EDGE_CURVE ( 'NONE', #127, #179, #3, .T. ) ;
#325 = ORIENTED_EDGE ( 'NONE', *, *, #324, .T. ) ;
#326 = PERSON_AND_ORGANIZATION ( #7, #54 ) ;
#327 = DESIGN_CONTEXT ( 'detailed design', #197, 'design' ) ;
#328 = DIRECTION ( 'NONE',  ( -3.491481338843133355E-15, 1.224646799147353207E-16, -1.000000000000000000 ) ) ;
#329 = CARTESIAN_POINT ( 'NONE',  ( 9.299933394825876956E-31, 2.174999999999998046, 2.663606788145491149E-16 ) ) ;
#330 = AXIS2_PLACEMENT_3D ( 'NONE', #217, #58, #70 ) ;
#331 = COORDINATED_UNIVERSAL_TIME_OFFSET ( 1, 0, .AHEAD. ) ;
#332 = PRODUCT_DEFINITION_FORMATION_WITH_SPECIFIED_SOURCE ( 'ANY', '', #123, .NOT_KNOWN. ) ;
#333 = CARTESIAN_POINT ( 'NONE',  ( 3.397115206035898559E-14, -2.174999999999997158, 18.00000000000000000 ) ) ;
#334 = PLANE ( 'NONE',  #212 ) ;
#335 = EDGE_LOOP ( 'NONE', ( #247, #45, #223 ) ) ;
#336 = DIRECTION ( 'NONE',  ( -3.491481338843133355E-15, 1.224646799147353207E-16, -1.000000000000000000 ) ) ;
#337 = FACE_OUTER_BOUND ( 'NONE', #207, .T. ) ;
ENDSEC;
END-ISO-10303-21;
