ISO-10303-21;
HEADER;
FILE_DESCRIPTION (( 'STEP AP203' ),
    '1' );
FILE_NAME ('39938.STEP',
    '2021-10-05T09:11:49',
    ( '' ),
    ( '' ),
    'SwSTEP 2.0',
    'SolidWorks 2019',
    '' );
FILE_SCHEMA (( 'CONFIG_CONTROL_DESIGN' ));
ENDSEC;

DATA;
#1 = CARTESIAN_POINT ( 'NONE',  ( 5.935518276033326704E-14, 1.593494769078215361E-32, 17.00000000000000000 ) ) ;
#2 = CIRCLE ( 'NONE', #87, 2.124999999999992895 ) ;
#3 = AXIS2_PLACEMENT_3D ( 'NONE', #72, #111, #154 ) ;
#4 = DIRECTION ( 'NONE',  ( 0.0000000000000000000, 1.000000000000000000, 0.0000000000000000000 ) ) ;
#5 = DATE_AND_TIME ( #128, #26 ) ;
#6 = ADVANCED_FACE ( 'NONE', ( #167 ), #70, .T. ) ;
#7 = COORDINATED_UNIVERSAL_TIME_OFFSET ( 1, 0, .AHEAD. ) ;
#8 = SECURITY_CLASSIFICATION_LEVEL ( 'unclassified' ) ;
#9 = ORIENTED_EDGE ( 'NONE', *, *, #41, .F. ) ;
#10 = LOCAL_TIME ( 11, 11, 49.00000000000000000, #145 ) ;
#11 = AXIS2_PLACEMENT_3D ( 'NONE', #155, #171, #91 ) ;
#12 = PRODUCT_DEFINITION_SHAPE ( 'NONE', 'NONE',  #182 ) ;
#13 = DIRECTION ( 'NONE',  ( -3.491481338843133355E-15, 1.224646799147353207E-16, -1.000000000000000000 ) ) ;
#14 = ORIENTED_EDGE ( 'NONE', *, *, #75, .T. ) ;
#15 = ORIENTED_EDGE ( 'NONE', *, *, #97, .F. ) ;
#16 = DATE_TIME_ROLE ( 'classification_date' ) ;
#17 = MANIFOLD_SOLID_BREP ( 'Corps-Déplacer/Copier1[2]', #161 ) ;
#18 = CC_DESIGN_PERSON_AND_ORGANIZATION_ASSIGNMENT ( #196, #40, ( #73 ) ) ;
#19 = APPROVAL_DATE_TIME ( #130, #108 ) ;
#20 = APPROVAL_STATUS ( 'not_yet_approved' ) ;
#21 = FACE_OUTER_BOUND ( 'NONE', #183, .T. ) ;
#22 = CONICAL_SURFACE ( 'NONE', #35, 1.624999999999997113, 0.7853981633974410625 ) ;
#23 = PERSON_AND_ORGANIZATION ( #158, #100 ) ;
#24 =( NAMED_UNIT ( * ) SI_UNIT ( $, .STERADIAN. ) SOLID_ANGLE_UNIT ( ) );
#25 = APPROVAL_DATE_TIME ( #181, #27 ) ;
#26 = LOCAL_TIME ( 11, 11, 49.00000000000000000, #83 ) ;
#27 = APPROVAL ( #105, 'UNSPECIFIED' ) ;
#28 = EDGE_LOOP ( 'NONE', ( #31 ) ) ;
#29 = DIRECTION ( 'NONE',  ( 3.491481338843133355E-15, -1.224646799147353207E-16, 1.000000000000000000 ) ) ;
#30 = DIRECTION ( 'NONE',  ( -3.491481338843133355E-15, 1.224646799147353207E-16, -1.000000000000000000 ) ) ;
#31 = ORIENTED_EDGE ( 'NONE', *, *, #41, .T. ) ;
#32 = CARTESIAN_POINT ( 'NONE',  ( 0.0000000000000000000, 0.0000000000000000000, 0.0000000000000000000 ) ) ;
#33 = CARTESIAN_POINT ( 'NONE',  ( 5.935518276033326704E-14, 2.124999999999990674, 17.00000000000000000 ) ) ;
#34 = PERSON_AND_ORGANIZATION_ROLE ( 'design_supplier' ) ;
#35 = AXIS2_PLACEMENT_3D ( 'NONE', #175, #66, #101 ) ;
#36 = ADVANCED_BREP_SHAPE_REPRESENTATION ( '39938', ( #191, #17, #152 ), #187 ) ;
#37 =( NAMED_UNIT ( * ) PLANE_ANGLE_UNIT ( ) SI_UNIT ( $, .RADIAN. ) );
#38 = AXIS2_PLACEMENT_3D ( 'NONE', #90, #76, #54 ) ;
#39 = ORIENTED_EDGE ( 'NONE', *, *, #75, .F. ) ;
#40 = PERSON_AND_ORGANIZATION_ROLE ( 'design_owner' ) ;
#41 = EDGE_CURVE ( 'NONE', #194, #194, #188, .T. ) ;
#42 = CC_DESIGN_PERSON_AND_ORGANIZATION_ASSIGNMENT ( #23, #46, ( #58 ) ) ;
#43 = EDGE_LOOP ( 'NONE', ( #9 ) ) ;
#44 = DIRECTION ( 'NONE',  ( 3.491481338843133355E-15, -1.224646799147353207E-16, 1.000000000000000000 ) ) ;
#45 = EDGE_LOOP ( 'NONE', ( #14 ) ) ;
#46 = PERSON_AND_ORGANIZATION_ROLE ( 'classification_officer' ) ;
#47 = AXIS2_PLACEMENT_3D ( 'NONE', #126, #30, #57 ) ;
#48 = CALENDAR_DATE ( 2021, 5, 10 ) ;
#49 = ADVANCED_FACE ( 'NONE', ( #89 ), #142, .F. ) ;
#50 = FACE_OUTER_BOUND ( 'NONE', #77, .T. ) ;
#51 = FACE_OUTER_BOUND ( 'NONE', #43, .T. ) ;
#52 = CC_DESIGN_APPROVAL ( #108, ( #182 ) ) ;
#53 = APPLICATION_PROTOCOL_DEFINITION ( 'international standard', 'config_control_design', 1994, #122 ) ;
#54 = DIRECTION ( 'NONE',  ( -4.275831445896958607E-31, -1.000000000000000000, -1.224646799147353207E-16 ) ) ;
#55 = DIRECTION ( 'NONE',  ( -3.491481338843133355E-15, 1.224646799147353207E-16, -1.000000000000000000 ) ) ;
#56 = CARTESIAN_POINT ( 'NONE',  ( 4.458023981983508590E-15, -1.563664321879833659E-16, 1.276828815433574515 ) ) ;
#57 = DIRECTION ( 'NONE',  ( 0.0000000000000000000, 1.000000000000000000, 0.0000000000000000000 ) ) ;
#58 = SECURITY_CLASSIFICATION ( '', '', #8 ) ;
#59 = CLOSED_SHELL ( 'NONE', ( #49, #163, #170, #138 ) ) ;
#60 = APPROVAL ( #81, 'UNSPECIFIED' ) ;
#61 = CARTESIAN_POINT ( 'NONE',  ( 5.935518276033326704E-14, -2.081899558550500280E-15, 17.00000000000000000 ) ) ;
#62 = DATE_TIME_ROLE ( 'creation_date' ) ;
#63 = PERSON_AND_ORGANIZATION ( #158, #100 ) ;
#64 = CYLINDRICAL_SURFACE ( 'NONE', #162, 2.124999999999991562 ) ;
#65 = PERSON_AND_ORGANIZATION ( #158, #100 ) ;
#66 = DIRECTION ( 'NONE',  ( -3.491481338843133355E-15, 1.224646799147353207E-16, -1.000000000000000000 ) ) ;
#67 = VERTEX_POINT ( 'NONE', #98 ) ;
#68 = CARTESIAN_POINT ( 'NONE',  ( 0.0000000000000000000, 0.0000000000000000000, 0.0000000000000000000 ) ) ;
#69 = EDGE_LOOP ( 'NONE', ( #103 ) ) ;
#70 = CONICAL_SURFACE ( 'NONE', #184, 2.124999999999990674, 1.029744258676649649 ) ;
#71 = APPROVAL_PERSON_ORGANIZATION ( #131, #60, #148 ) ;
#72 = CARTESIAN_POINT ( 'NONE',  ( 4.458023981983508590E-15, -1.563664321879833659E-16, 1.276828815433574515 ) ) ;
#73 = PRODUCT ( '39938', '39938', '', ( #86 ) ) ;
#74 = EDGE_LOOP ( 'NONE', ( #143 ) ) ;
#75 = EDGE_CURVE ( 'NONE', #93, #93, #80, .T. ) ;
#76 = DIRECTION ( 'NONE',  ( 3.491481338843133355E-15, -1.224646799147353207E-16, 1.000000000000000000 ) ) ;
#77 = EDGE_LOOP ( 'NONE', ( #15 ) ) ;
#78 = CC_DESIGN_DATE_AND_TIME_ASSIGNMENT ( #117, #62, ( #182 ) ) ;
#79 = LOCAL_TIME ( 11, 11, 49.00000000000000000, #199 ) ;
#80 = CIRCLE ( 'NONE', #3, 2.124999999999990674 ) ;
#81 = APPROVAL_STATUS ( 'not_yet_approved' ) ;
#82 = CC_DESIGN_APPROVAL ( #27, ( #58 ) ) ;
#83 = COORDINATED_UNIVERSAL_TIME_OFFSET ( 1, 0, .AHEAD. ) ;
#84 = CARTESIAN_POINT ( 'NONE',  ( 4.458023981983509379E-15, 2.124999999999990674, 1.276828815433574738 ) ) ;
#85 = EDGE_LOOP ( 'NONE', ( #110 ) ) ;
#86 = MECHANICAL_CONTEXT ( 'NONE', #179, 'mechanical' ) ;
#87 = AXIS2_PLACEMENT_3D ( 'NONE', #61, #94, #4 ) ;
#88 = ORIENTED_EDGE ( 'NONE', *, *, #202, .T. ) ;
#89 = FACE_OUTER_BOUND ( 'NONE', #28, .T. ) ;
#90 = CARTESIAN_POINT ( 'NONE',  ( 5.935518276033326704E-14, 1.593494769078215361E-32, 17.00000000000000000 ) ) ;
#91 = DIRECTION ( 'NONE',  ( 0.0000000000000000000, 1.000000000000000000, 0.0000000000000000000 ) ) ;
#92 = APPROVAL_ROLE ( '' ) ;
#93 = VERTEX_POINT ( 'NONE', #84 ) ;
#94 = DIRECTION ( 'NONE',  ( -3.491481338843133355E-15, 1.224646799147353207E-16, -1.000000000000000000 ) ) ;
#95 = CALENDAR_DATE ( 2021, 5, 10 ) ;
#96 = DIRECTION ( 'NONE',  ( -3.491481338843133355E-15, 1.224646799147353207E-16, -1.000000000000000000 ) ) ;
#97 = EDGE_CURVE ( 'NONE', #67, #67, #121, .T. ) ;
#98 = CARTESIAN_POINT ( 'NONE',  ( 1.902857329669507363E-13, 2.124999999999990674, 54.49999999999999289 ) ) ;
#99 = COORDINATED_UNIVERSAL_TIME_OFFSET ( 1, 0, .AHEAD. ) ;
#100 = ORGANIZATION ( 'UNSPECIFIED', 'UNSPECIFIED', '' ) ;
#101 = DIRECTION ( 'NONE',  ( 0.0000000000000000000, 1.000000000000000000, 0.0000000000000000000 ) ) ;
#102 = AXIS2_PLACEMENT_3D ( 'NONE', #1, #44, #168 ) ;
#103 = ORIENTED_EDGE ( 'NONE', *, *, #97, .T. ) ;
#104 = PERSON_AND_ORGANIZATION ( #158, #100 ) ;
#105 = APPROVAL_STATUS ( 'not_yet_approved' ) ;
#106 = CALENDAR_DATE ( 2021, 5, 10 ) ;
#107 = UNCERTAINTY_MEASURE_WITH_UNIT (LENGTH_MEASURE( 1.000000000000000082E-05 ), #115, 'distance_accuracy_value', 'NONE');
#108 = APPROVAL ( #20, 'UNSPECIFIED' ) ;
#109 = FACE_OUTER_BOUND ( 'NONE', #74, .T. ) ;
#110 = ORIENTED_EDGE ( 'NONE', *, *, #202, .F. ) ;
#111 = DIRECTION ( 'NONE',  ( -3.491481338843133355E-15, 1.224646799147353207E-16, -1.000000000000000000 ) ) ;
#112 = DIRECTION ( 'NONE',  ( 0.0000000000000000000, 1.000000000000000000, 0.0000000000000000000 ) ) ;
#113 = CC_DESIGN_APPROVAL ( #60, ( #127 ) ) ;
#114 = CARTESIAN_POINT ( 'NONE',  ( 5.935518276033326704E-14, 2.124999999999990674, 17.00000000000000000 ) ) ;
#115 =( LENGTH_UNIT ( ) NAMED_UNIT ( * ) SI_UNIT ( .MILLI., .METRE. ) );
#116 = PERSON_AND_ORGANIZATION ( #158, #100 ) ;
#117 = DATE_AND_TIME ( #157, #176 ) ;
#118 = APPROVAL_DATE_TIME ( #173, #60 ) ;
#119 = CYLINDRICAL_SURFACE ( 'NONE', #139, 2.124999999999995115 ) ;
#120 = DIRECTION ( 'NONE',  ( 0.0000000000000000000, 0.0000000000000000000, 1.000000000000000000 ) ) ;
#121 = CIRCLE ( 'NONE', #47, 2.124999999999997335 ) ;
#122 = APPLICATION_CONTEXT ( 'configuration controlled 3d designs of mechanical parts and assemblies' ) ;
#123 = FACE_OUTER_BOUND ( 'NONE', #125, .T. ) ;
#124 = ADVANCED_FACE ( 'NONE', ( #186 ), #140, .T. ) ;
#125 = EDGE_LOOP ( 'NONE', ( #39 ) ) ;
#126 = CARTESIAN_POINT ( 'NONE',  ( 1.902857329669507363E-13, -6.674325055353074252E-15, 54.49999999999999289 ) ) ;
#127 = PRODUCT_DEFINITION_FORMATION_WITH_SPECIFIED_SOURCE ( 'ANY', '', #73, .NOT_KNOWN. ) ;
#128 = CALENDAR_DATE ( 2021, 5, 10 ) ;
#129 = AXIS2_PLACEMENT_3D ( 'NONE', #203, #55, #112 ) ;
#130 = DATE_AND_TIME ( #95, #10 ) ;
#131 = PERSON_AND_ORGANIZATION ( #158, #100 ) ;
#132 = DIRECTION ( 'NONE',  ( 4.275831445896958607E-31, 1.000000000000000000, 1.224646799147353207E-16 ) ) ;
#133 = PERSON_AND_ORGANIZATION_ROLE ( 'creator' ) ;
#134 = EDGE_CURVE ( 'NONE', #159, #159, #190, .T. ) ;
#135 = FACE_BOUND ( 'NONE', #153, .T. ) ;
#136 = VERTEX_POINT ( 'NONE', #114 ) ;
#137 = CC_DESIGN_PERSON_AND_ORGANIZATION_ASSIGNMENT ( #65, #133, ( #127 ) ) ;
#138 = ADVANCED_FACE ( 'NONE', ( #109 ), #156, .F. ) ;
#139 = AXIS2_PLACEMENT_3D ( 'NONE', #32, #193, #174 ) ;
#140 = PLANE ( 'NONE',  #38 ) ;
#141 = DIRECTION ( 'NONE',  ( -3.625279895317165863E-31, -1.000000000000000000, -1.020425574104008683E-16 ) ) ;
#142 = PLANE ( 'NONE',  #102 ) ;
#143 = ORIENTED_EDGE ( 'NONE', *, *, #134, .F. ) ;
#144 = APPROVAL_PERSON_ORGANIZATION ( #104, #108, #92 ) ;
#145 = COORDINATED_UNIVERSAL_TIME_OFFSET ( 1, 0, .AHEAD. ) ;
#146 = CARTESIAN_POINT ( 'NONE',  ( 0.0000000000000000000, 0.0000000000000000000, 0.0000000000000000000 ) ) ;
#147 = ADVANCED_FACE ( 'NONE', ( #123, #21 ), #64, .T. ) ;
#148 = APPROVAL_ROLE ( '' ) ;
#149 = FACE_OUTER_BOUND ( 'NONE', #69, .T. ) ;
#150 = APPLICATION_PROTOCOL_DEFINITION ( 'international standard', 'config_control_design', 1994, #179 ) ;
#151 = APPROVAL_ROLE ( '' ) ;
#152 = AXIS2_PLACEMENT_3D ( 'NONE', #68, #120, #177 ) ;
#153 = EDGE_LOOP ( 'NONE', ( #185 ) ) ;
#154 = DIRECTION ( 'NONE',  ( 3.625279895317165863E-31, 1.000000000000000000, 1.020425574104008683E-16 ) ) ;
#155 = CARTESIAN_POINT ( 'NONE',  ( 1.920314736363723472E-13, -6.735557395310442615E-15, 55.00000000000000000 ) ) ;
#156 = PLANE ( 'NONE',  #200 ) ;
#157 = CALENDAR_DATE ( 2021, 5, 10 ) ;
#158 = PERSON ( 'UNSPECIFIED', 'UNSPECIFIED', 'UNSPECIFIED', ('UNSPECIFIED'), ('UNSPECIFIED'), ('UNSPECIFIED') ) ;
#159 = VERTEX_POINT ( 'NONE', #192 ) ;
#160 = PRODUCT_RELATED_PRODUCT_CATEGORY ( 'detail', '', ( #73 ) ) ;
#161 = CLOSED_SHELL ( 'NONE', ( #6, #147, #124 ) ) ;
#162 = AXIS2_PLACEMENT_3D ( 'NONE', #146, #96, #132 ) ;
#163 = ADVANCED_FACE ( 'NONE', ( #51, #149 ), #119, .T. ) ;
#164 = CC_DESIGN_PERSON_AND_ORGANIZATION_ASSIGNMENT ( #189, #195, ( #182 ) ) ;
#165 = APPROVAL_PERSON_ORGANIZATION ( #63, #27, #151 ) ;
#166 = CARTESIAN_POINT ( 'NONE',  ( 1.920314736363723472E-13, 1.218554823412747127E-32, 55.00000000000000000 ) ) ;
#167 = FACE_OUTER_BOUND ( 'NONE', #45, .T. ) ;
#168 = DIRECTION ( 'NONE',  ( -4.275831445896958607E-31, -1.000000000000000000, -1.224646799147353207E-16 ) ) ;
#169 = LOCAL_TIME ( 11, 11, 49.00000000000000000, #99 ) ;
#170 = ADVANCED_FACE ( 'NONE', ( #50, #135 ), #22, .T. ) ;
#171 = DIRECTION ( 'NONE',  ( -3.491481338843133355E-15, 1.224646799147353207E-16, -1.000000000000000000 ) ) ;
#172 = CC_DESIGN_PERSON_AND_ORGANIZATION_ASSIGNMENT ( #116, #34, ( #127 ) ) ;
#173 = DATE_AND_TIME ( #48, #169 ) ;
#174 = DIRECTION ( 'NONE',  ( 4.275831445896957731E-31, 1.000000000000000000, 1.224646799147353207E-16 ) ) ;
#175 = CARTESIAN_POINT ( 'NONE',  ( 1.920314736363723472E-13, -6.735557395310442615E-15, 55.00000000000000000 ) ) ;
#176 = LOCAL_TIME ( 11, 11, 49.00000000000000000, #7 ) ;
#177 = DIRECTION ( 'NONE',  ( 1.000000000000000000, 0.0000000000000000000, 0.0000000000000000000 ) ) ;
#178 = CC_DESIGN_DATE_AND_TIME_ASSIGNMENT ( #5, #16, ( #58 ) ) ;
#179 = APPLICATION_CONTEXT ( 'configuration controlled 3d designs of mechanical parts and assemblies' ) ;
#180 = DESIGN_CONTEXT ( 'detailed design', #122, 'design' ) ;
#181 = DATE_AND_TIME ( #106, #79 ) ;
#182 = PRODUCT_DEFINITION ( 'UNKNOWN', '', #127, #180 ) ;
#183 = EDGE_LOOP ( 'NONE', ( #88 ) ) ;
#184 = AXIS2_PLACEMENT_3D ( 'NONE', #56, #29, #141 ) ;
#185 = ORIENTED_EDGE ( 'NONE', *, *, #134, .T. ) ;
#186 = FACE_OUTER_BOUND ( 'NONE', #85, .T. ) ;
#187 =( GEOMETRIC_REPRESENTATION_CONTEXT ( 3 ) GLOBAL_UNCERTAINTY_ASSIGNED_CONTEXT ( ( #107 ) ) GLOBAL_UNIT_ASSIGNED_CONTEXT ( ( #115, #37, #24 ) ) REPRESENTATION_CONTEXT ( 'NONE', 'WORKASPACE' ) );
#188 = CIRCLE ( 'NONE', #129, 2.124999999999992895 ) ;
#189 = PERSON_AND_ORGANIZATION ( #158, #100 ) ;
#190 = CIRCLE ( 'NONE', #11, 1.624999999999997113 ) ;
#191 = MANIFOLD_SOLID_BREP ( 'Corps-Déplacer/Copier1[1]', #59 ) ;
#192 = CARTESIAN_POINT ( 'NONE',  ( 1.920314736363723472E-13, 1.624999999999990452, 55.00000000000000000 ) ) ;
#193 = DIRECTION ( 'NONE',  ( -3.491481338843133355E-15, 1.224646799147353207E-16, -1.000000000000000000 ) ) ;
#194 = VERTEX_POINT ( 'NONE', #33 ) ;
#195 = PERSON_AND_ORGANIZATION_ROLE ( 'creator' ) ;
#196 = PERSON_AND_ORGANIZATION ( #158, #100 ) ;
#197 = CC_DESIGN_SECURITY_CLASSIFICATION ( #58, ( #127 ) ) ;
#198 = SHAPE_DEFINITION_REPRESENTATION ( #12, #36 ) ;
#199 = COORDINATED_UNIVERSAL_TIME_OFFSET ( 1, 0, .AHEAD. ) ;
#200 = AXIS2_PLACEMENT_3D ( 'NONE', #166, #13, #201 ) ;
#201 = DIRECTION ( 'NONE',  ( 4.275831445896958607E-31, 1.000000000000000000, 1.224646799147353207E-16 ) ) ;
#202 = EDGE_CURVE ( 'NONE', #136, #136, #2, .T. ) ;
#203 = CARTESIAN_POINT ( 'NONE',  ( 5.935518276033326704E-14, -2.081899558550500280E-15, 17.00000000000000000 ) ) ;
ENDSEC;
END-ISO-10303-21;
