ISO-10303-21;
HEADER;
FILE_DESCRIPTION (( 'STEP AP203' ),
    '1' );
FILE_NAME ('39932.step',
    '2021-11-01T10:35:07',
    ( '' ),
    ( '' ),
    'SwSTEP 2.0',
    'SolidWorks 2019',
    '' );
FILE_SCHEMA (( 'CONFIG_CONTROL_DESIGN' ));
ENDSEC;

DATA;
#1 = ORIENTED_EDGE ( 'NONE', *, *, #161, .F. ) ;
#2 = CC_DESIGN_SECURITY_CLASSIFICATION ( #155, ( #188 ) ) ;
#3 = DIRECTION ( 'NONE',  ( 3.491481338843133355E-15, -1.224646799147353207E-16, 1.000000000000000000 ) ) ;
#4 = PLANE ( 'NONE',  #150 ) ;
#5 = AXIS2_PLACEMENT_3D ( 'NONE', #213, #216, #153 ) ;
#6 = DIRECTION ( 'NONE',  ( -4.285855558155654155E-31, -1.000000000000000000, -1.227517819005650812E-16 ) ) ;
#7 = PRODUCT_RELATED_PRODUCT_CATEGORY ( 'detail', '', ( #111 ) ) ;
#8 = FACE_OUTER_BOUND ( 'NONE', #143, .T. ) ;
#9 = DIRECTION ( 'NONE',  ( 3.491481338843133355E-15, -1.227517819005651059E-16, 1.000000000000000000 ) ) ;
#10 = ADVANCED_FACE ( 'NONE', ( #178 ), #22, .F. ) ;
#11 = PERSON_AND_ORGANIZATION ( #205, #123 ) ;
#12 = AXIS2_PLACEMENT_3D ( 'NONE', #149, #212, #24 ) ;
#13 = CC_DESIGN_APPROVAL ( #186, ( #155 ) ) ;
#14 = APPROVAL_STATUS ( 'not_yet_approved' ) ;
#15 = APPLICATION_CONTEXT ( 'configuration controlled 3d designs of mechanical parts and assemblies' ) ;
#16 = APPLICATION_PROTOCOL_DEFINITION ( 'international standard', 'config_control_design', 1994, #15 ) ;
#17 = AXIS2_PLACEMENT_3D ( 'NONE', #165, #68, #182 ) ;
#18 = APPROVAL ( #14, 'UNSPECIFIED' ) ;
#19 = VERTEX_POINT ( 'NONE', #31 ) ;
#20 = CC_DESIGN_PERSON_AND_ORGANIZATION_ASSIGNMENT ( #140, #139, ( #188 ) ) ;
#21 = AXIS2_PLACEMENT_3D ( 'NONE', #98, #146, #64 ) ;
#22 = PLANE ( 'NONE',  #21 ) ;
#23 = AXIS2_PLACEMENT_3D ( 'NONE', #83, #9, #25 ) ;
#24 = DIRECTION ( 'NONE',  ( 0.0000000000000000000, 1.000000000000000000, 0.0000000000000000000 ) ) ;
#25 = DIRECTION ( 'NONE',  ( 0.0000000000000000000, -1.000000000000000000, 0.0000000000000000000 ) ) ;
#26 = DIRECTION ( 'NONE',  ( 4.275831445896958607E-31, 1.000000000000000000, 1.224646799147353207E-16 ) ) ;
#27 = ADVANCED_FACE ( 'NONE', ( #131 ), #85, .F. ) ;
#28 = CARTESIAN_POINT ( 'NONE',  ( 1.326762908760390423E-13, -4.653657836759941941E-15, 38.00000000000000000 ) ) ;
#29 = DIRECTION ( 'NONE',  ( 0.0000000000000000000, 1.000000000000000000, 0.0000000000000000000 ) ) ;
#30 = COORDINATED_UNIVERSAL_TIME_OFFSET ( 1, 0, .AHEAD. ) ;
#31 = CARTESIAN_POINT ( 'NONE',  ( -5.143026669786769747E-31, -0.5999999999999980904, -1.473021382806776882E-16 ) ) ;
#32 = AXIS2_PLACEMENT_3D ( 'NONE', #195, #151, #136 ) ;
#33 = APPROVAL_DATE_TIME ( #156, #208 ) ;
#34 = ADVANCED_BREP_SHAPE_REPRESENTATION ( '39932', ( #82, #147, #162 ), #47 ) ;
#35 = COORDINATED_UNIVERSAL_TIME_OFFSET ( 1, 0, .AHEAD. ) ;
#36 = AXIS2_PLACEMENT_3D ( 'NONE', #197, #45, #117 ) ;
#37 = CC_DESIGN_PERSON_AND_ORGANIZATION_ASSIGNMENT ( #89, #187, ( #111 ) ) ;
#38 = ORIENTED_EDGE ( 'NONE', *, *, #56, .F. ) ;
#39 = CLOSED_SHELL ( 'NONE', ( #84, #175, #27 ) ) ;
#40 = ORIENTED_EDGE ( 'NONE', *, *, #102, .T. ) ;
#41 = EDGE_CURVE ( 'NONE', #101, #101, #172, .T. ) ;
#42 = CARTESIAN_POINT ( 'NONE',  ( 1.256933281983527692E-14, 1.124819836996386090E-32, 3.599999999999999201 ) ) ;
#43 = EDGE_CURVE ( 'NONE', #168, #168, #114, .T. ) ;
#44 = DIRECTION ( 'NONE',  ( -3.491481338843133355E-15, 1.224646799147353207E-16, -1.000000000000000000 ) ) ;
#45 = DIRECTION ( 'NONE',  ( 3.491481338843133355E-15, -1.227517819005651059E-16, 1.000000000000000000 ) ) ;
#46 = VERTEX_POINT ( 'NONE', #103 ) ;
#47 =( GEOMETRIC_REPRESENTATION_CONTEXT ( 3 ) GLOBAL_UNCERTAINTY_ASSIGNED_CONTEXT ( ( #179 ) ) GLOBAL_UNIT_ASSIGNED_CONTEXT ( ( #92, #159, #71 ) ) REPRESENTATION_CONTEXT ( 'NONE', 'WORKASPACE' ) );
#48 = CC_DESIGN_DATE_AND_TIME_ASSIGNMENT ( #108, #223, ( #155 ) ) ;
#49 = FACE_OUTER_BOUND ( 'NONE', #129, .T. ) ;
#50 = APPROVAL_ROLE ( '' ) ;
#51 = CIRCLE ( 'NONE', #17, 1.499999999999994005 ) ;
#52 = APPROVAL_PERSON_ORGANIZATION ( #75, #18, #157 ) ;
#53 = CC_DESIGN_DATE_AND_TIME_ASSIGNMENT ( #191, #170, ( #73 ) ) ;
#54 = PERSON_AND_ORGANIZATION ( #205, #123 ) ;
#55 = COORDINATED_UNIVERSAL_TIME_OFFSET ( 1, 0, .AHEAD. ) ;
#56 = EDGE_CURVE ( 'NONE', #46, #46, #91, .T. ) ;
#57 = CIRCLE ( 'NONE', #113, 1.199999999999995515 ) ;
#58 = CALENDAR_DATE ( 2021, 1, 11 ) ;
#59 = EDGE_LOOP ( 'NONE', ( #38 ) ) ;
#60 = ORIENTED_EDGE ( 'NONE', *, *, #43, .F. ) ;
#61 = EDGE_LOOP ( 'NONE', ( #1 ) ) ;
#62 = CC_DESIGN_APPROVAL ( #18, ( #73 ) ) ;
#63 = ADVANCED_FACE ( 'NONE', ( #65, #132 ), #210, .T. ) ;
#64 = DIRECTION ( 'NONE',  ( -4.275831445896958607E-31, -1.000000000000000000, -1.224646799147353207E-16 ) ) ;
#65 = FACE_OUTER_BOUND ( 'NONE', #128, .T. ) ;
#66 = LOCAL_TIME ( 11, 35, 7.000000000000000000, #55 ) ;
#67 = CARTESIAN_POINT ( 'NONE',  ( -1.068955699180124799E-30, 3.749391872347842254E-32, -3.061610804811898009E-16 ) ) ;
#68 = DIRECTION ( 'NONE',  ( -3.491481338843133355E-15, 1.227517819005651059E-16, -1.000000000000000000 ) ) ;
#69 = CARTESIAN_POINT ( 'NONE',  ( 1.256933281983527692E-14, -0.5999999999999989786, 3.599999999999999201 ) ) ;
#70 = FACE_OUTER_BOUND ( 'NONE', #145, .T. ) ;
#71 =( NAMED_UNIT ( * ) SI_UNIT ( $, .STERADIAN. ) SOLID_ANGLE_UNIT ( ) );
#72 = VERTEX_POINT ( 'NONE', #189 ) ;
#73 = PRODUCT_DEFINITION ( 'UNKNOWN', '', #188, #215 ) ;
#74 = PERSON_AND_ORGANIZATION_ROLE ( 'creator' ) ;
#75 = PERSON_AND_ORGANIZATION ( #205, #123 ) ;
#76 = ORIENTED_EDGE ( 'NONE', *, *, #41, .T. ) ;
#77 = ORIENTED_EDGE ( 'NONE', *, *, #41, .F. ) ;
#78 = DATE_AND_TIME ( #58, #130 ) ;
#79 = ORIENTED_EDGE ( 'NONE', *, *, #219, .T. ) ;
#80 = AXIS2_PLACEMENT_3D ( 'NONE', #163, #44, #26 ) ;
#81 = LOCAL_TIME ( 11, 35, 7.000000000000000000, #30 ) ;
#82 = MANIFOLD_SOLID_BREP ( 'Corps-Déplacer/Copier1[1]', #194 ) ;
#83 = CARTESIAN_POINT ( 'NONE',  ( 1.256933281983527692E-14, -4.419064148420342726E-16, 3.599999999999999201 ) ) ;
#84 = ADVANCED_FACE ( 'NONE', ( #8 ), #152, .T. ) ;
#85 = PLANE ( 'NONE',  #94 ) ;
#86 = FACE_OUTER_BOUND ( 'NONE', #59, .T. ) ;
#87 = FACE_OUTER_BOUND ( 'NONE', #93, .T. ) ;
#88 = CALENDAR_DATE ( 2021, 1, 11 ) ;
#89 = PERSON_AND_ORGANIZATION ( #205, #123 ) ;
#90 = PERSON_AND_ORGANIZATION ( #205, #123 ) ;
#91 = CIRCLE ( 'NONE', #5, 0.5999999999999985345 ) ;
#92 =( LENGTH_UNIT ( ) NAMED_UNIT ( * ) SI_UNIT ( .MILLI., .METRE. ) );
#93 = EDGE_LOOP ( 'NONE', ( #76 ) ) ;
#94 = AXIS2_PLACEMENT_3D ( 'NONE', #67, #181, #183 ) ;
#95 = LOCAL_TIME ( 11, 35, 7.000000000000000000, #190 ) ;
#96 = EDGE_LOOP ( 'NONE', ( #79 ) ) ;
#97 = ADVANCED_FACE ( 'NONE', ( #196 ), #4, .F. ) ;
#98 = CARTESIAN_POINT ( 'NONE',  ( 1.256933281983527692E-14, 1.124819836996386090E-32, 3.599999999999999201 ) ) ;
#99 = CARTESIAN_POINT ( 'NONE',  ( 1.326762908760390423E-13, 8.998558695971044381E-33, 38.00000000000000000 ) ) ;
#100 = CARTESIAN_POINT ( 'NONE',  ( -2.571513334893385312E-31, -1.350828267700900142E-32, -7.365106914033886877E-17 ) ) ;
#101 = VERTEX_POINT ( 'NONE', #69 ) ;
#102 = EDGE_CURVE ( 'NONE', #72, #72, #51, .T. ) ;
#103 = CARTESIAN_POINT ( 'NONE',  ( 1.256933281983527692E-14, -0.5999999999999989786, 3.599999999999999201 ) ) ;
#104 = CALENDAR_DATE ( 2021, 1, 11 ) ;
#105 = DIRECTION ( 'NONE',  ( 1.000000000000000000, 0.0000000000000000000, 0.0000000000000000000 ) ) ;
#106 = DIRECTION ( 'NONE',  ( 0.0000000000000000000, 0.0000000000000000000, 1.000000000000000000 ) ) ;
#107 = CALENDAR_DATE ( 2021, 1, 11 ) ;
#108 = DATE_AND_TIME ( #107, #95 ) ;
#109 = CC_DESIGN_APPROVAL ( #208, ( #188 ) ) ;
#110 = ORIENTED_EDGE ( 'NONE', *, *, #102, .F. ) ;
#111 = PRODUCT ( '39932', '39932', '', ( #201 ) ) ;
#112 = EDGE_LOOP ( 'NONE', ( #110 ) ) ;
#113 = AXIS2_PLACEMENT_3D ( 'NONE', #28, #185, #29 ) ;
#114 = CIRCLE ( 'NONE', #12, 1.499999999999996003 ) ;
#115 = DIRECTION ( 'NONE',  ( -3.491481338843133355E-15, 1.224646799147353207E-16, -1.000000000000000000 ) ) ;
#116 = CARTESIAN_POINT ( 'NONE',  ( 1.256933281983527377E-14, 0.0000000000000000000, 3.599999999999998312 ) ) ;
#117 = DIRECTION ( 'NONE',  ( -4.285855558155655031E-31, -1.000000000000000000, -1.227517819005651305E-16 ) ) ;
#118 = AXIS2_PLACEMENT_3D ( 'NONE', #42, #3, #133 ) ;
#119 = DIRECTION ( 'NONE',  ( -4.365841384671495503E-31, -1.000000000000000000, -1.227517819005651059E-16 ) ) ;
#120 = PERSON_AND_ORGANIZATION_ROLE ( 'creator' ) ;
#121 = ADVANCED_FACE ( 'NONE', ( #87, #184 ), #221, .F. ) ;
#122 = APPLICATION_PROTOCOL_DEFINITION ( 'international standard', 'config_control_design', 1994, #142 ) ;
#123 = ORGANIZATION ( 'UNSPECIFIED', 'UNSPECIFIED', '' ) ;
#124 = APPROVAL_STATUS ( 'not_yet_approved' ) ;
#125 = PERSON_AND_ORGANIZATION_ROLE ( 'classification_officer' ) ;
#126 = CC_DESIGN_PERSON_AND_ORGANIZATION_ASSIGNMENT ( #54, #125, ( #155 ) ) ;
#127 = SHAPE_DEFINITION_REPRESENTATION ( #164, #34 ) ;
#128 = EDGE_LOOP ( 'NONE', ( #60 ) ) ;
#129 = EDGE_LOOP ( 'NONE', ( #211 ) ) ;
#130 = LOCAL_TIME ( 11, 35, 7.000000000000000000, #148 ) ;
#131 = FACE_OUTER_BOUND ( 'NONE', #61, .T. ) ;
#132 = FACE_BOUND ( 'NONE', #96, .T. ) ;
#133 = DIRECTION ( 'NONE',  ( -4.275831445896958607E-31, -1.000000000000000000, -1.224646799147353207E-16 ) ) ;
#134 = CC_DESIGN_PERSON_AND_ORGANIZATION_ASSIGNMENT ( #218, #74, ( #188 ) ) ;
#135 = CYLINDRICAL_SURFACE ( 'NONE', #36, 0.5999999999999983125 ) ;
#136 = DIRECTION ( 'NONE',  ( 0.0000000000000000000, 1.000000000000000000, 0.0000000000000000000 ) ) ;
#137 = AXIS2_PLACEMENT_3D ( 'NONE', #116, #169, #119 ) ;
#138 = FACE_OUTER_BOUND ( 'NONE', #112, .T. ) ;
#139 = PERSON_AND_ORGANIZATION_ROLE ( 'design_supplier' ) ;
#140 = PERSON_AND_ORGANIZATION ( #205, #123 ) ;
#141 = CALENDAR_DATE ( 2021, 1, 11 ) ;
#142 = APPLICATION_CONTEXT ( 'configuration controlled 3d designs of mechanical parts and assemblies' ) ;
#143 = EDGE_LOOP ( 'NONE', ( #220 ) ) ;
#144 = EDGE_LOOP ( 'NONE', ( #160 ) ) ;
#145 = EDGE_LOOP ( 'NONE', ( #177 ) ) ;
#146 = DIRECTION ( 'NONE',  ( 3.491481338843133355E-15, -1.224646799147353207E-16, 1.000000000000000000 ) ) ;
#147 = MANIFOLD_SOLID_BREP ( 'Corps-Déplacer/Copier1[2]', #39 ) ;
#148 = COORDINATED_UNIVERSAL_TIME_OFFSET ( 1, 0, .AHEAD. ) ;
#149 = CARTESIAN_POINT ( 'NONE',  ( 1.316288464743861212E-13, -4.616918432785521081E-15, 37.69999999999999574 ) ) ;
#150 = AXIS2_PLACEMENT_3D ( 'NONE', #99, #115, #214 ) ;
#151 = DIRECTION ( 'NONE',  ( -3.491481338843133355E-15, 1.224646799147353207E-16, -1.000000000000000000 ) ) ;
#152 = PLANE ( 'NONE',  #118 ) ;
#153 = DIRECTION ( 'NONE',  ( 0.0000000000000000000, -1.000000000000000000, 0.0000000000000000000 ) ) ;
#154 = CIRCLE ( 'NONE', #167, 0.5999999999999980904 ) ;
#155 = SECURITY_CLASSIFICATION ( '', '', #203 ) ;
#156 = DATE_AND_TIME ( #88, #207 ) ;
#157 = APPROVAL_ROLE ( '' ) ;
#158 = ADVANCED_FACE ( 'NONE', ( #70, #138 ), #199, .T. ) ;
#159 =( NAMED_UNIT ( * ) PLANE_ANGLE_UNIT ( ) SI_UNIT ( $, .RADIAN. ) );
#160 = ORIENTED_EDGE ( 'NONE', *, *, #219, .F. ) ;
#161 = EDGE_CURVE ( 'NONE', #19, #19, #154, .T. ) ;
#162 = AXIS2_PLACEMENT_3D ( 'NONE', #174, #106, #105 ) ;
#163 = CARTESIAN_POINT ( 'NONE',  ( 0.0000000000000000000, 0.0000000000000000000, 0.0000000000000000000 ) ) ;
#164 = PRODUCT_DEFINITION_SHAPE ( 'NONE', 'NONE',  #73 ) ;
#165 = CARTESIAN_POINT ( 'NONE',  ( 2.544054511540658886E-14, -4.525197448213620058E-16, 7.286461718233343099 ) ) ;
#166 = DIRECTION ( 'NONE',  ( 3.491481338843133355E-15, -1.227517819005651059E-16, 1.000000000000000000 ) ) ;
#167 = AXIS2_PLACEMENT_3D ( 'NONE', #100, #166, #6 ) ;
#168 = VERTEX_POINT ( 'NONE', #198 ) ;
#169 = DIRECTION ( 'NONE',  ( 3.491481338843133355E-15, -1.227517819005651059E-16, 1.000000000000000000 ) ) ;
#170 = DATE_TIME_ROLE ( 'creation_date' ) ;
#171 = CC_DESIGN_PERSON_AND_ORGANIZATION_ASSIGNMENT ( #90, #120, ( #73 ) ) ;
#172 = CIRCLE ( 'NONE', #23, 0.5999999999999985345 ) ;
#173 = APPROVAL_PERSON_ORGANIZATION ( #209, #186, #176 ) ;
#174 = CARTESIAN_POINT ( 'NONE',  ( 0.0000000000000000000, 0.0000000000000000000, 0.0000000000000000000 ) ) ;
#175 = ADVANCED_FACE ( 'NONE', ( #49, #86 ), #135, .T. ) ;
#176 = APPROVAL_ROLE ( '' ) ;
#177 = ORIENTED_EDGE ( 'NONE', *, *, #43, .T. ) ;
#178 = FACE_OUTER_BOUND ( 'NONE', #222, .T. ) ;
#179 = UNCERTAINTY_MEASURE_WITH_UNIT (LENGTH_MEASURE( 1.000000000000000082E-05 ), #92, 'distance_accuracy_value', 'NONE');
#180 = APPROVAL_DATE_TIME ( #78, #186 ) ;
#181 = DIRECTION ( 'NONE',  ( 3.491481338843133355E-15, -1.224646799147353207E-16, 1.000000000000000000 ) ) ;
#182 = DIRECTION ( 'NONE',  ( 0.0000000000000000000, 1.000000000000000000, 0.0000000000000000000 ) ) ;
#183 = DIRECTION ( 'NONE',  ( -4.275831445896958607E-31, -1.000000000000000000, -1.224646799147353207E-16 ) ) ;
#184 = FACE_OUTER_BOUND ( 'NONE', #193, .T. ) ;
#185 = DIRECTION ( 'NONE',  ( -3.491481338843133355E-15, 1.224646799147353207E-16, -1.000000000000000000 ) ) ;
#186 = APPROVAL ( #192, 'UNSPECIFIED' ) ;
#187 = PERSON_AND_ORGANIZATION_ROLE ( 'design_owner' ) ;
#188 = PRODUCT_DEFINITION_FORMATION_WITH_SPECIFIED_SOURCE ( 'ANY', '', #111, .NOT_KNOWN. ) ;
#189 = CARTESIAN_POINT ( 'NONE',  ( 2.544054511540658886E-14, 1.499999999999993561, 7.286461718233343099 ) ) ;
#190 = COORDINATED_UNIVERSAL_TIME_OFFSET ( 1, 0, .AHEAD. ) ;
#191 = DATE_AND_TIME ( #104, #81 ) ;
#192 = APPROVAL_STATUS ( 'not_yet_approved' ) ;
#193 = EDGE_LOOP ( 'NONE', ( #40 ) ) ;
#194 = CLOSED_SHELL ( 'NONE', ( #158, #63, #97, #121, #10 ) ) ;
#195 = CARTESIAN_POINT ( 'NONE',  ( 1.326762908760390423E-13, -4.653657836759941941E-15, 38.00000000000000000 ) ) ;
#196 = FACE_OUTER_BOUND ( 'NONE', #144, .T. ) ;
#197 = CARTESIAN_POINT ( 'NONE',  ( -6.413731847436034514E-31, 0.0000000000000000000, -1.836965810494968570E-16 ) ) ;
#198 = CARTESIAN_POINT ( 'NONE',  ( 1.316288464743861212E-13, 1.499999999999991340, 37.69999999999999574 ) ) ;
#199 = CYLINDRICAL_SURFACE ( 'NONE', #80, 1.499999999999994005 ) ;
#200 = VERTEX_POINT ( 'NONE', #204 ) ;
#201 = MECHANICAL_CONTEXT ( 'NONE', #15, 'mechanical' ) ;
#202 = APPROVAL_PERSON_ORGANIZATION ( #11, #208, #50 ) ;
#203 = SECURITY_CLASSIFICATION_LEVEL ( 'unclassified' ) ;
#204 = CARTESIAN_POINT ( 'NONE',  ( 1.326762908760390423E-13, 1.199999999999991074, 38.00000000000000000 ) ) ;
#205 = PERSON ( 'UNSPECIFIED', 'UNSPECIFIED', 'UNSPECIFIED', ('UNSPECIFIED'), ('UNSPECIFIED'), ('UNSPECIFIED') ) ;
#206 = DATE_AND_TIME ( #141, #66 ) ;
#207 = LOCAL_TIME ( 11, 35, 7.000000000000000000, #35 ) ;
#208 = APPROVAL ( #124, 'UNSPECIFIED' ) ;
#209 = PERSON_AND_ORGANIZATION ( #205, #123 ) ;
#210 = CONICAL_SURFACE ( 'NONE', #32, 1.199999999999995515, 0.7853981633974461696 ) ;
#211 = ORIENTED_EDGE ( 'NONE', *, *, #161, .T. ) ;
#212 = DIRECTION ( 'NONE',  ( -3.491481338843133355E-15, 1.224646799147353207E-16, -1.000000000000000000 ) ) ;
#213 = CARTESIAN_POINT ( 'NONE',  ( 1.256933281983527692E-14, -4.419064148420342726E-16, 3.599999999999999201 ) ) ;
#214 = DIRECTION ( 'NONE',  ( 4.275831445896958607E-31, 1.000000000000000000, 1.224646799147353207E-16 ) ) ;
#215 = DESIGN_CONTEXT ( 'detailed design', #142, 'design' ) ;
#216 = DIRECTION ( 'NONE',  ( 3.491481338843133355E-15, -1.227517819005651059E-16, 1.000000000000000000 ) ) ;
#217 = APPROVAL_DATE_TIME ( #206, #18 ) ;
#218 = PERSON_AND_ORGANIZATION ( #205, #123 ) ;
#219 = EDGE_CURVE ( 'NONE', #200, #200, #57, .T. ) ;
#220 = ORIENTED_EDGE ( 'NONE', *, *, #56, .T. ) ;
#221 = TOROIDAL_SURFACE ( 'NONE', #137, 8.599999999999997868, 8.000000000000000000 ) ;
#222 = EDGE_LOOP ( 'NONE', ( #77 ) ) ;
#223 = DATE_TIME_ROLE ( 'classification_date' ) ;
ENDSEC;
END-ISO-10303-21;
