ISO-10303-21;
HEADER;
FILE_DESCRIPTION (( 'STEP AP203' ),
    '1' );
FILE_NAME ('39757.step',
    '2021-09-03T07:22:06',
    ( '' ),
    ( '' ),
    'SwSTEP 2.0',
    'SolidWorks 2019',
    '' );
FILE_SCHEMA (( 'CONFIG_CONTROL_DESIGN' ));
ENDSEC;

DATA;
#1 = EDGE_CURVE ( 'NONE', #51, #60, #213, .T. ) ;
#2 = DIRECTION ( 'NONE',  ( -3.491481338843133355E-15, 1.224646799147353207E-16, -1.000000000000000000 ) ) ;
#3 = AXIS2_PLACEMENT_3D ( 'NONE', #337, #177, #322 ) ;
#4 = DIRECTION ( 'NONE',  ( 0.0000000000000000000, 1.000000000000000000, 0.0000000000000000000 ) ) ;
#5 = APPLICATION_PROTOCOL_DEFINITION ( 'international standard', 'config_control_design', 1994, #280 ) ;
#6 = AXIS2_PLACEMENT_3D ( 'NONE', #121, #150, #122 ) ;
#7 = PERSON_AND_ORGANIZATION_ROLE ( 'classification_officer' ) ;
#8 = PERSON_AND_ORGANIZATION ( #250, #276 ) ;
#9 = CC_DESIGN_PERSON_AND_ORGANIZATION_ASSIGNMENT ( #8, #12, ( #66 ) ) ;
#10 = VECTOR ( 'NONE', #191, 1000.000000000000000 ) ;
#11 = VECTOR ( 'NONE', #110, 1000.000000000000000 ) ;
#12 = PERSON_AND_ORGANIZATION_ROLE ( 'creator' ) ;
#13 = PERSON_AND_ORGANIZATION ( #250, #276 ) ;
#14 = DIRECTION ( 'NONE',  ( -3.491481338843133355E-15, 1.224646799147353207E-16, -1.000000000000000000 ) ) ;
#15 = ORIENTED_EDGE ( 'NONE', *, *, #142, .T. ) ;
#16 = CYLINDRICAL_SURFACE ( 'NONE', #208, 1.049999999999992717 ) ;
#17 = PRODUCT_RELATED_PRODUCT_CATEGORY ( 'detail', '', ( #126 ) ) ;
#18 = DIRECTION ( 'NONE',  ( -3.491481338843133355E-15, 1.224646799147353207E-16, -1.000000000000000000 ) ) ;
#19 = AXIS2_PLACEMENT_3D ( 'NONE', #231, #30, #109 ) ;
#20 = ORIENTED_EDGE ( 'NONE', *, *, #118, .T. ) ;
#21 = EDGE_CURVE ( 'NONE', #36, #133, #244, .T. ) ;
#22 = ORIENTED_EDGE ( 'NONE', *, *, #29, .T. ) ;
#23 = CARTESIAN_POINT ( 'NONE',  ( 1.326762908760390423E-13, 6.373979076312788094E-33, 38.00000000000000000 ) ) ;
#24 = CALENDAR_DATE ( 2021, 3, 9 ) ;
#25 = CARTESIAN_POINT ( 'NONE',  ( 1.694164809895929824E-14, -1.049999999999991829, 9.000000000000001776 ) ) ;
#26 = ORIENTED_EDGE ( 'NONE', *, *, #300, .T. ) ;
#27 = PLANE ( 'NONE',  #158 ) ;
#28 = PERSON_AND_ORGANIZATION_ROLE ( 'design_supplier' ) ;
#29 = EDGE_CURVE ( 'NONE', #286, #325, #138, .T. ) ;
#30 = DIRECTION ( 'NONE',  ( 3.491481338843133355E-15, -1.224646799147353207E-16, 1.000000000000000000 ) ) ;
#31 = ORIENTED_EDGE ( 'NONE', *, *, #1, .T. ) ;
#32 = APPLICATION_PROTOCOL_DEFINITION ( 'international standard', 'config_control_design', 1994, #187 ) ;
#33 = EDGE_CURVE ( 'NONE', #60, #51, #103, .T. ) ;
#34 = CARTESIAN_POINT ( 'NONE',  ( 3.142333204958820651E-14, 7.873738858974668965E-33, 9.000000000000001776 ) ) ;
#35 = CARTESIAN_POINT ( 'NONE',  ( 4.489623018191775095E-31, 1.049999999999992717, 1.285879139104712104E-16 ) ) ;
#36 = VERTEX_POINT ( 'NONE', #161 ) ;
#37 = CIRCLE ( 'NONE', #6, 1.049999999999990719 ) ;
#38 = LOCAL_TIME ( 9, 22, 5.000000000000000000, #162 ) ;
#39 = CARTESIAN_POINT ( 'NONE',  ( 0.0000000000000000000, 0.0000000000000000000, 0.0000000000000000000 ) ) ;
#40 = CARTESIAN_POINT ( 'NONE',  ( 2.331376234419956412E-15, 1.049999999999989830, 0.6309036499789391073 ) ) ;
#41 = DATE_TIME_ROLE ( 'classification_date' ) ;
#42 = ORIENTED_EDGE ( 'NONE', *, *, #201, .F. ) ;
#43 = ORIENTED_EDGE ( 'NONE', *, *, #101, .F. ) ;
#44 = CARTESIAN_POINT ( 'NONE',  ( 2.202788320509484980E-15, -1.049999999999989830, 0.6309036499789388852 ) ) ;
#45 = FACE_OUTER_BOUND ( 'NONE', #252, .T. ) ;
#46 = EDGE_LOOP ( 'NONE', ( #20, #183, #155, #43 ) ) ;
#47 = CIRCLE ( 'NONE', #152, 1.049999999999994715 ) ;
#48 = ADVANCED_FACE ( 'NONE', ( #153 ), #61, .F. ) ;
#49 = CC_DESIGN_APPROVAL ( #81, ( #54 ) ) ;
#50 = DIRECTION ( 'NONE',  ( 0.0000000000000000000, 1.000000000000000000, 0.0000000000000000000 ) ) ;
#51 = VERTEX_POINT ( 'NONE', #25 ) ;
#52 = EDGE_CURVE ( 'NONE', #275, #36, #256, .T. ) ;
#53 = CARTESIAN_POINT ( 'NONE',  ( 0.0000000000000000000, 0.0000000000000000000, 0.0000000000000000000 ) ) ;
#54 = SECURITY_CLASSIFICATION ( '', '', #232 ) ;
#55 = MANIFOLD_SOLID_BREP ( 'Corps-Déplacer/Copier1[1]', #326 ) ;
#56 = DIRECTION ( 'NONE',  ( 0.0000000000000000000, 1.000000000000000000, 0.0000000000000000000 ) ) ;
#57 = CALENDAR_DATE ( 2021, 3, 9 ) ;
#58 = ORIENTED_EDGE ( 'NONE', *, *, #264, .T. ) ;
#59 = APPROVAL_STATUS ( 'not_yet_approved' ) ;
#60 = VERTEX_POINT ( 'NONE', #221 ) ;
#61 = PLANE ( 'NONE',  #62 ) ;
#62 = AXIS2_PLACEMENT_3D ( 'NONE', #23, #130, #229 ) ;
#63 = MANIFOLD_SOLID_BREP ( 'Corps-Déplacer/Copier1[2]', #304 ) ;
#64 = CARTESIAN_POINT ( 'NONE',  ( 1.326762908760390423E-13, -4.653657836759941941E-15, 38.00000000000000000 ) ) ;
#65 = VERTEX_POINT ( 'NONE', #303 ) ;
#66 = PRODUCT_DEFINITION_FORMATION_WITH_SPECIFIED_SOURCE ( 'ANY', '', #126, .NOT_KNOWN. ) ;
#67 = DIRECTION ( 'NONE',  ( 4.275831445896958607E-31, 1.000000000000000000, 1.224646799147353207E-16 ) ) ;
#68 = CARTESIAN_POINT ( 'NONE',  ( 1.326762908760390423E-13, -4.653657836759941941E-15, 38.00000000000000000 ) ) ;
#69 = CARTESIAN_POINT ( 'NONE',  ( 4.489623018191764586E-31, 1.049999999999990274, 1.285879139104708899E-16 ) ) ;
#70 = CARTESIAN_POINT ( 'NONE',  ( 2.202788320509485374E-15, -7.726341355170897583E-17, 0.6309036499789389962 ) ) ;
#71 = DIRECTION ( 'NONE',  ( 3.491481338843133355E-15, -1.224646799147353207E-16, 1.000000000000000000 ) ) ;
#72 = PERSON_AND_ORGANIZATION ( #250, #276 ) ;
#73 = APPROVAL ( #202, 'UNSPECIFIED' ) ;
#74 = DIRECTION ( 'NONE',  ( 0.0000000000000000000, 1.000000000000000000, 0.0000000000000000000 ) ) ;
#75 = CARTESIAN_POINT ( 'NONE',  ( 1.326762908760390423E-13, -4.653657836759941941E-15, 38.00000000000000000 ) ) ;
#76 = AXIS2_PLACEMENT_3D ( 'NONE', #198, #203, #310 ) ;
#77 = PERSON_AND_ORGANIZATION ( #250, #276 ) ;
#78 = DIRECTION ( 'NONE',  ( 0.0000000000000000000, 1.000000000000000000, 0.0000000000000000000 ) ) ;
#79 = APPROVAL_DATE_TIME ( #308, #73 ) ;
#80 = EDGE_LOOP ( 'NONE', ( #245, #206, #219 ) ) ;
#81 = APPROVAL ( #147, 'UNSPECIFIED' ) ;
#82 = DIRECTION ( 'NONE',  ( -2.468850131082260610E-15, 0.7071067811865489050, -0.7071067811865462405 ) ) ;
#83 =( GEOMETRIC_REPRESENTATION_CONTEXT ( 3 ) GLOBAL_UNCERTAINTY_ASSIGNED_CONTEXT ( ( #330 ) ) GLOBAL_UNIT_ASSIGNED_CONTEXT ( ( #192, #294, #194 ) ) REPRESENTATION_CONTEXT ( 'NONE', 'WORKASPACE' ) );
#84 = EDGE_LOOP ( 'NONE', ( #291, #284, #274, #119 ) ) ;
#85 = ORIENTED_EDGE ( 'NONE', *, *, #315, .T. ) ;
#86 = DIRECTION ( 'NONE',  ( 4.275831445896958607E-31, 1.000000000000000000, 1.224646799147353207E-16 ) ) ;
#87 = EDGE_CURVE ( 'NONE', #277, #65, #148, .T. ) ;
#88 = EDGE_LOOP ( 'NONE', ( #267, #335 ) ) ;
#89 = COORDINATED_UNIVERSAL_TIME_OFFSET ( 1, 0, .AHEAD. ) ;
#90 = CONICAL_SURFACE ( 'NONE', #272, 1.049999999999989830, 1.029744258676649649 ) ;
#91 = CALENDAR_DATE ( 2021, 3, 9 ) ;
#92 = AXIS2_PLACEMENT_3D ( 'NONE', #100, #225, #56 ) ;
#93 = CARTESIAN_POINT ( 'NONE',  ( 2.202788320509485374E-15, -7.726341355170897583E-17, 0.6309036499789389962 ) ) ;
#94 = APPROVAL ( #59, 'UNSPECIFIED' ) ;
#95 = ORIENTED_EDGE ( 'NONE', *, *, #201, .T. ) ;
#96 = ORIENTED_EDGE ( 'NONE', *, *, #300, .F. ) ;
#97 = VECTOR ( 'NONE', #195, 999.9999999999998863 ) ;
#98 = DIRECTION ( 'NONE',  ( -3.491481338843133355E-15, 1.224646799147353207E-16, -1.000000000000000000 ) ) ;
#99 = ORIENTED_EDGE ( 'NONE', *, *, #102, .F. ) ;
#100 = CARTESIAN_POINT ( 'NONE',  ( 3.142333204958820651E-14, -1.102182119232617911E-15, 9.000000000000001776 ) ) ;
#101 = EDGE_CURVE ( 'NONE', #133, #286, #235, .T. ) ;
#102 = EDGE_CURVE ( 'NONE', #140, #275, #157, .T. ) ;
#103 = CIRCLE ( 'NONE', #239, 1.049999999999990719 ) ;
#104 = ADVANCED_FACE ( 'NONE', ( #45 ), #143, .T. ) ;
#105 = FACE_OUTER_BOUND ( 'NONE', #216, .T. ) ;
#106 = DIRECTION ( 'NONE',  ( 4.275831445896958607E-31, 1.000000000000000000, 1.224646799147353454E-16 ) ) ;
#107 = DIRECTION ( 'NONE',  ( 0.0000000000000000000, 0.0000000000000000000, 1.000000000000000000 ) ) ;
#108 = CC_DESIGN_APPROVAL ( #94, ( #66 ) ) ;
#109 = DIRECTION ( 'NONE',  ( -3.668437989309056247E-31, -1.000000000000000000, -1.032573497605252331E-16 ) ) ;
#110 = DIRECTION ( 'NONE',  ( 1.798245827342160317E-15, -0.8571673007021098911, 0.5150380749100582634 ) ) ;
#111 = ADVANCED_FACE ( 'NONE', ( #172 ), #16, .T. ) ;
#112 = LINE ( 'NONE', #40, #97 ) ;
#113 = DESIGN_CONTEXT ( 'detailed design', #280, 'design' ) ;
#114 = CARTESIAN_POINT ( 'NONE',  ( 1.319779946082704535E-13, 1.049999999999990274, 37.79999999999999716 ) ) ;
#115 = AXIS2_PLACEMENT_3D ( 'NONE', #124, #253, #86 ) ;
#116 = EDGE_LOOP ( 'NONE', ( #99, #96 ) ) ;
#117 = CARTESIAN_POINT ( 'NONE',  ( 3.142333204958820651E-14, 1.049999999999989830, 9.000000000000001776 ) ) ;
#118 = EDGE_CURVE ( 'NONE', #133, #36, #47, .T. ) ;
#119 = ORIENTED_EDGE ( 'NONE', *, *, #142, .F. ) ;
#120 = DIRECTION ( 'NONE',  ( -3.491481338843133355E-15, 1.224646799147353207E-16, -1.000000000000000000 ) ) ;
#121 = CARTESIAN_POINT ( 'NONE',  ( 3.142333204958820651E-14, -1.102182119232617911E-15, 9.000000000000001776 ) ) ;
#122 = DIRECTION ( 'NONE',  ( 0.0000000000000000000, 1.000000000000000000, 0.0000000000000000000 ) ) ;
#123 = CIRCLE ( 'NONE', #205, 0.8499999999999952038 ) ;
#124 = CARTESIAN_POINT ( 'NONE',  ( 0.0000000000000000000, 0.0000000000000000000, 0.0000000000000000000 ) ) ;
#125 = APPROVAL_ROLE ( '' ) ;
#126 = PRODUCT ( '39757', '39757', '', ( #222 ) ) ;
#127 = CARTESIAN_POINT ( 'NONE',  ( 1.327803858539665835E-13, -0.8499999999999998668, 38.00000000000000000 ) ) ;
#128 = APPROVAL_PERSON_ORGANIZATION ( #72, #81, #125 ) ;
#129 = PRODUCT_DEFINITION ( 'UNKNOWN', '', #66, #113 ) ;
#130 = DIRECTION ( 'NONE',  ( -3.491481338843133355E-15, 1.224646799147353207E-16, -1.000000000000000000 ) ) ;
#131 = PRODUCT_DEFINITION_SHAPE ( 'NONE', 'NONE',  #129 ) ;
#132 = CALENDAR_DATE ( 2021, 3, 9 ) ;
#133 = VERTEX_POINT ( 'NONE', #114 ) ;
#134 = DATE_TIME_ROLE ( 'creation_date' ) ;
#135 = ORIENTED_EDGE ( 'NONE', *, *, #102, .T. ) ;
#136 = ADVANCED_FACE ( 'NONE', ( #296 ), #90, .T. ) ;
#137 = DIRECTION ( 'NONE',  ( -4.275831445896958607E-31, -1.000000000000000000, -1.224646799147353207E-16 ) ) ;
#138 = CIRCLE ( 'NONE', #92, 1.049999999999990719 ) ;
#139 = DIRECTION ( 'NONE',  ( -3.491481338843133355E-15, 1.224646799147353207E-16, -1.000000000000000000 ) ) ;
#140 = VERTEX_POINT ( 'NONE', #243 ) ;
#141 = APPROVAL_DATE_TIME ( #230, #94 ) ;
#142 = EDGE_CURVE ( 'NONE', #325, #286, #37, .T. ) ;
#143 = CONICAL_SURFACE ( 'NONE', #226, 0.8499999999999952038, 0.7853981633974501664 ) ;
#144 = CYLINDRICAL_SURFACE ( 'NONE', #182, 1.049999999999992717 ) ;
#145 = DIRECTION ( 'NONE',  ( 4.275831445896958607E-31, 1.000000000000000000, 1.224646799147353454E-16 ) ) ;
#146 = CARTESIAN_POINT ( 'NONE',  ( 1.319779946082704535E-13, -4.629164900776995227E-15, 37.79999999999999716 ) ) ;
#147 = APPROVAL_STATUS ( 'not_yet_approved' ) ;
#148 = CIRCLE ( 'NONE', #3, 1.049999999999989830 ) ;
#149 = DIRECTION ( 'NONE',  ( -3.491481338843133355E-15, 1.224646799147353207E-16, -1.000000000000000000 ) ) ;
#150 = DIRECTION ( 'NONE',  ( -3.491481338843133355E-15, 1.224646799147353207E-16, -1.000000000000000000 ) ) ;
#151 = DIRECTION ( 'NONE',  ( -3.491481338843133355E-15, 1.224646799147353207E-16, -1.000000000000000000 ) ) ;
#152 = AXIS2_PLACEMENT_3D ( 'NONE', #146, #14, #271 ) ;
#153 = FACE_OUTER_BOUND ( 'NONE', #116, .T. ) ;
#154 = APPROVAL_ROLE ( '' ) ;
#155 = ORIENTED_EDGE ( 'NONE', *, *, #29, .F. ) ;
#156 = CC_DESIGN_DATE_AND_TIME_ASSIGNMENT ( #281, #134, ( #129 ) ) ;
#157 = CIRCLE ( 'NONE', #188, 0.8499999999999952038 ) ;
#158 = AXIS2_PLACEMENT_3D ( 'NONE', #34, #207, #137 ) ;
#159 = APPROVAL_PERSON_ORGANIZATION ( #257, #94, #154 ) ;
#160 = PERSON_AND_ORGANIZATION_ROLE ( 'creator' ) ;
#161 = CARTESIAN_POINT ( 'NONE',  ( 8.182925124283963970E-14, -1.049999999999999378, 37.79999999999999716 ) ) ;
#162 = COORDINATED_UNIVERSAL_TIME_OFFSET ( 1, 0, .AHEAD. ) ;
#163 = ADVANCED_FACE ( 'NONE', ( #218 ), #333, .T. ) ;
#164 = FACE_OUTER_BOUND ( 'NONE', #254, .T. ) ;
#165 = AXIS2_PLACEMENT_3D ( 'NONE', #236, #107, #301 ) ;
#166 = DIRECTION ( 'NONE',  ( -3.491481338843133355E-15, 1.224646799147353207E-16, -1.000000000000000000 ) ) ;
#167 = CYLINDRICAL_SURFACE ( 'NONE', #282, 1.049999999999990274 ) ;
#168 = LOCAL_TIME ( 9, 22, 5.000000000000000000, #89 ) ;
#169 = DIRECTION ( 'NONE',  ( -3.491481338843133355E-15, 1.224646799147353207E-16, -1.000000000000000000 ) ) ;
#170 = ADVANCED_FACE ( 'NONE', ( #224 ), #228, .T. ) ;
#171 = DIRECTION ( 'NONE',  ( -3.491481338843133355E-15, 1.224646799147353207E-16, -1.000000000000000000 ) ) ;
#172 = FACE_OUTER_BOUND ( 'NONE', #46, .T. ) ;
#173 = DIRECTION ( 'NONE',  ( -3.491481338843133355E-15, 1.224646799147353207E-16, -1.000000000000000000 ) ) ;
#174 = ORIENTED_EDGE ( 'NONE', *, *, #52, .T. ) ;
#175 = CARTESIAN_POINT ( 'NONE',  ( 1.319779946082704535E-13, -4.629164900776995227E-15, 37.79999999999999716 ) ) ;
#176 = ORIENTED_EDGE ( 'NONE', *, *, #87, .T. ) ;
#177 = DIRECTION ( 'NONE',  ( -3.491481338843133355E-15, 1.224646799147353207E-16, -1.000000000000000000 ) ) ;
#178 = VECTOR ( 'NONE', #324, 1000.000000000000000 ) ;
#179 = ADVANCED_FACE ( 'NONE', ( #105 ), #299, .T. ) ;
#180 = EDGE_LOOP ( 'NONE', ( #307, #31, #58, #273 ) ) ;
#181 = CIRCLE ( 'NONE', #266, 1.049999999999989830 ) ;
#182 = AXIS2_PLACEMENT_3D ( 'NONE', #39, #166, #106 ) ;
#183 = ORIENTED_EDGE ( 'NONE', *, *, #193, .T. ) ;
#184 = FACE_OUTER_BOUND ( 'NONE', #313, .T. ) ;
#185 = DIRECTION ( 'NONE',  ( 0.0000000000000000000, 1.000000000000000000, 0.0000000000000000000 ) ) ;
#186 = CALENDAR_DATE ( 2021, 3, 9 ) ;
#187 = APPLICATION_CONTEXT ( 'configuration controlled 3d designs of mechanical parts and assemblies' ) ;
#188 = AXIS2_PLACEMENT_3D ( 'NONE', #64, #149, #211 ) ;
#189 = CONICAL_SURFACE ( 'NONE', #209, 0.8499999999999952038, 0.7853981633974501664 ) ;
#190 = ADVANCED_FACE ( 'NONE', ( #184 ), #27, .F. ) ;
#191 = DIRECTION ( 'NONE',  ( -3.491481338843133355E-15, 1.224646799147353207E-16, -1.000000000000000000 ) ) ;
#192 =( LENGTH_UNIT ( ) NAMED_UNIT ( * ) SI_UNIT ( .MILLI., .METRE. ) );
#193 = EDGE_CURVE ( 'NONE', #36, #325, #317, .T. ) ;
#194 =( NAMED_UNIT ( * ) SI_UNIT ( $, .STERADIAN. ) SOLID_ANGLE_UNIT ( ) );
#195 = DIRECTION ( 'NONE',  ( 1.903218546456022717E-15, 0.8571673007021097801, 0.5150380749100585964 ) ) ;
#196 = CARTESIAN_POINT ( 'NONE',  ( 3.142333204958820651E-14, -1.102182119232617911E-15, 9.000000000000001776 ) ) ;
#197 = CC_DESIGN_DATE_AND_TIME_ASSIGNMENT ( #290, #41, ( #54 ) ) ;
#198 = CARTESIAN_POINT ( 'NONE',  ( 3.142333204958820651E-14, 7.873738858974668965E-33, 9.000000000000001776 ) ) ;
#199 = SHAPE_DEFINITION_REPRESENTATION ( #131, #318 ) ;
#200 = DIRECTION ( 'NONE',  ( 0.0000000000000000000, 1.000000000000000000, 0.0000000000000000000 ) ) ;
#201 = EDGE_CURVE ( 'NONE', #140, #133, #287, .T. ) ;
#202 = APPROVAL_STATUS ( 'not_yet_approved' ) ;
#203 = DIRECTION ( 'NONE',  ( 3.491481338843133355E-15, -1.224646799147353207E-16, 1.000000000000000000 ) ) ;
#204 = ORIENTED_EDGE ( 'NONE', *, *, #279, .F. ) ;
#205 = AXIS2_PLACEMENT_3D ( 'NONE', #331, #18, #185 ) ;
#206 = ORIENTED_EDGE ( 'NONE', *, *, #240, .T. ) ;
#207 = DIRECTION ( 'NONE',  ( 3.491481338843133355E-15, -1.224646799147353207E-16, 1.000000000000000000 ) ) ;
#208 = AXIS2_PLACEMENT_3D ( 'NONE', #53, #169, #145 ) ;
#209 = AXIS2_PLACEMENT_3D ( 'NONE', #75, #98, #200 ) ;
#210 = CARTESIAN_POINT ( 'NONE',  ( 1.285879139104707666E-16, -1.049999999999992717, -1.285879139104716295E-16 ) ) ;
#211 = DIRECTION ( 'NONE',  ( 0.0000000000000000000, 1.000000000000000000, 0.0000000000000000000 ) ) ;
#212 = DIRECTION ( 'NONE',  ( -3.491481338843133355E-15, 1.224646799147353207E-16, -1.000000000000000000 ) ) ;
#213 = CIRCLE ( 'NONE', #319, 1.049999999999990719 ) ;
#214 = EDGE_CURVE ( 'NONE', #51, #277, #237, .T. ) ;
#215 = DIRECTION ( 'NONE',  ( 3.668437989309056247E-31, 1.000000000000000000, 1.032573497605252331E-16 ) ) ;
#216 = EDGE_LOOP ( 'NONE', ( #217, #85, #176 ) ) ;
#217 = ORIENTED_EDGE ( 'NONE', *, *, #240, .F. ) ;
#218 = FACE_OUTER_BOUND ( 'NONE', #88, .T. ) ;
#219 = ORIENTED_EDGE ( 'NONE', *, *, #279, .T. ) ;
#220 = COORDINATED_UNIVERSAL_TIME_OFFSET ( 1, 0, .AHEAD. ) ;
#221 = CARTESIAN_POINT ( 'NONE',  ( 3.142333204958820651E-14, 1.049999999999989830, 9.000000000000001776 ) ) ;
#222 = MECHANICAL_CONTEXT ( 'NONE', #187, 'mechanical' ) ;
#223 = DIRECTION ( 'NONE',  ( -2.382254525458712342E-15, -0.7071067811865487940, -0.7071067811865463515 ) ) ;
#224 = FACE_OUTER_BOUND ( 'NONE', #258, .T. ) ;
#225 = DIRECTION ( 'NONE',  ( -3.491481338843133355E-15, 1.224646799147353207E-16, -1.000000000000000000 ) ) ;
#226 = AXIS2_PLACEMENT_3D ( 'NONE', #68, #173, #50 ) ;
#227 = LOCAL_TIME ( 9, 22, 5.000000000000000000, #262 ) ;
#228 = CYLINDRICAL_SURFACE ( 'NONE', #115, 1.049999999999990274 ) ;
#229 = DIRECTION ( 'NONE',  ( 4.275831445896958607E-31, 1.000000000000000000, 1.224646799147353207E-16 ) ) ;
#230 = DATE_AND_TIME ( #132, #289 ) ;
#231 = CARTESIAN_POINT ( 'NONE',  ( 2.202788320509485374E-15, -7.726341355170897583E-17, 0.6309036499789389962 ) ) ;
#232 = SECURITY_CLASSIFICATION_LEVEL ( 'unclassified' ) ;
#233 = ADVANCED_FACE ( 'NONE', ( #265 ), #167, .T. ) ;
#234 = CARTESIAN_POINT ( 'NONE',  ( 1.326762908760390423E-13, 0.8499999999999905409, 38.00000000000000000 ) ) ;
#235 = LINE ( 'NONE', #35, #178 ) ;
#236 = CARTESIAN_POINT ( 'NONE',  ( 0.0000000000000000000, 0.0000000000000000000, 0.0000000000000000000 ) ) ;
#237 = LINE ( 'NONE', #321, #10 ) ;
#238 = PERSON_AND_ORGANIZATION ( #250, #276 ) ;
#239 = AXIS2_PLACEMENT_3D ( 'NONE', #278, #2, #4 ) ;
#240 = EDGE_CURVE ( 'NONE', #297, #65, #112, .T. ) ;
#241 = LINE ( 'NONE', #69, #332 ) ;
#242 = DIRECTION ( 'NONE',  ( -3.668437989309056247E-31, -1.000000000000000000, -1.032573497605252331E-16 ) ) ;
#243 = CARTESIAN_POINT ( 'NONE',  ( 1.326762908760390423E-13, 0.8499999999999905409, 38.00000000000000000 ) ) ;
#244 = CIRCLE ( 'NONE', #288, 1.049999999999994715 ) ;
#245 = ORIENTED_EDGE ( 'NONE', *, *, #315, .F. ) ;
#246 = CARTESIAN_POINT ( 'NONE',  ( 0.0000000000000000000, 0.0000000000000000000, 0.0000000000000000000 ) ) ;
#247 = APPROVAL_DATE_TIME ( #328, #81 ) ;
#248 = DIRECTION ( 'NONE',  ( -3.491481338843133355E-15, 1.224646799147353207E-16, -1.000000000000000000 ) ) ;
#249 = ORIENTED_EDGE ( 'NONE', *, *, #214, .T. ) ;
#250 = PERSON ( 'UNSPECIFIED', 'UNSPECIFIED', 'UNSPECIFIED', ('UNSPECIFIED'), ('UNSPECIFIED'), ('UNSPECIFIED') ) ;
#251 = ORIENTED_EDGE ( 'NONE', *, *, #52, .F. ) ;
#252 = EDGE_LOOP ( 'NONE', ( #251, #26, #95, #309 ) ) ;
#253 = DIRECTION ( 'NONE',  ( -3.491481338843133355E-15, 1.224646799147353207E-16, -1.000000000000000000 ) ) ;
#254 = EDGE_LOOP ( 'NONE', ( #135, #174, #269, #42 ) ) ;
#255 = LOCAL_TIME ( 9, 22, 5.000000000000000000, #220 ) ;
#256 = LINE ( 'NONE', #127, #295 ) ;
#257 = PERSON_AND_ORGANIZATION ( #250, #276 ) ;
#258 = EDGE_LOOP ( 'NONE', ( #263, #249, #204, #336 ) ) ;
#259 = APPROVAL_ROLE ( '' ) ;
#260 = CC_DESIGN_PERSON_AND_ORGANIZATION_ASSIGNMENT ( #238, #7, ( #54 ) ) ;
#261 = COORDINATED_UNIVERSAL_TIME_OFFSET ( 1, 0, .AHEAD. ) ;
#262 = COORDINATED_UNIVERSAL_TIME_OFFSET ( 1, 0, .AHEAD. ) ;
#263 = ORIENTED_EDGE ( 'NONE', *, *, #33, .T. ) ;
#264 = EDGE_CURVE ( 'NONE', #60, #65, #241, .T. ) ;
#265 = FACE_OUTER_BOUND ( 'NONE', #180, .T. ) ;
#266 = AXIS2_PLACEMENT_3D ( 'NONE', #70, #120, #215 ) ;
#267 = ORIENTED_EDGE ( 'NONE', *, *, #33, .F. ) ;
#268 = FACE_OUTER_BOUND ( 'NONE', #84, .T. ) ;
#269 = ORIENTED_EDGE ( 'NONE', *, *, #118, .F. ) ;
#270 = CARTESIAN_POINT ( 'NONE',  ( 1.324434841880737475E-13, -0.8499999999999998668, 38.00000000000000000 ) ) ;
#271 = DIRECTION ( 'NONE',  ( 0.0000000000000000000, 1.000000000000000000, 0.0000000000000000000 ) ) ;
#272 = AXIS2_PLACEMENT_3D ( 'NONE', #93, #71, #242 ) ;
#273 = ORIENTED_EDGE ( 'NONE', *, *, #87, .F. ) ;
#274 = ORIENTED_EDGE ( 'NONE', *, *, #101, .T. ) ;
#275 = VERTEX_POINT ( 'NONE', #270 ) ;
#276 = ORGANIZATION ( 'UNSPECIFIED', 'UNSPECIFIED', '' ) ;
#277 = VERTEX_POINT ( 'NONE', #44 ) ;
#278 = CARTESIAN_POINT ( 'NONE',  ( 3.142333204958820651E-14, -1.102182119232617911E-15, 9.000000000000001776 ) ) ;
#279 = EDGE_CURVE ( 'NONE', #65, #277, #181, .T. ) ;
#280 = APPLICATION_CONTEXT ( 'configuration controlled 3d designs of mechanical parts and assemblies' ) ;
#281 = DATE_AND_TIME ( #57, #227 ) ;
#282 = AXIS2_PLACEMENT_3D ( 'NONE', #246, #212, #67 ) ;
#283 = CC_DESIGN_APPROVAL ( #73, ( #129 ) ) ;
#284 = ORIENTED_EDGE ( 'NONE', *, *, #21, .T. ) ;
#285 = CC_DESIGN_PERSON_AND_ORGANIZATION_ASSIGNMENT ( #77, #305, ( #126 ) ) ;
#286 = VERTEX_POINT ( 'NONE', #117 ) ;
#287 = LINE ( 'NONE', #234, #312 ) ;
#288 = AXIS2_PLACEMENT_3D ( 'NONE', #175, #151, #78 ) ;
#289 = LOCAL_TIME ( 9, 22, 5.000000000000000000, #261 ) ;
#290 = DATE_AND_TIME ( #186, #168 ) ;
#291 = ORIENTED_EDGE ( 'NONE', *, *, #193, .F. ) ;
#292 = CARTESIAN_POINT ( 'NONE',  ( 8.182925124283976591E-14, -1.049999999999991829, 9.000000000000001776 ) ) ;
#293 = CC_DESIGN_PERSON_AND_ORGANIZATION_ASSIGNMENT ( #316, #160, ( #129 ) ) ;
#294 =( NAMED_UNIT ( * ) PLANE_ANGLE_UNIT ( ) SI_UNIT ( $, .RADIAN. ) );
#295 = VECTOR ( 'NONE', #223, 999.9999999999998863 ) ;
#296 = FACE_OUTER_BOUND ( 'NONE', #80, .T. ) ;
#297 = VERTEX_POINT ( 'NONE', #329 ) ;
#298 = VECTOR ( 'NONE', #139, 1000.000000000000000 ) ;
#299 = CONICAL_SURFACE ( 'NONE', #19, 1.049999999999989830, 1.029744258676649649 ) ;
#300 = EDGE_CURVE ( 'NONE', #275, #140, #123, .T. ) ;
#301 = DIRECTION ( 'NONE',  ( 1.000000000000000000, 0.0000000000000000000, 0.0000000000000000000 ) ) ;
#302 = LINE ( 'NONE', #314, #11 ) ;
#303 = CARTESIAN_POINT ( 'NONE',  ( 2.331376234419956412E-15, 1.049999999999989830, 0.6309036499789391073 ) ) ;
#304 = CLOSED_SHELL ( 'NONE', ( #170, #136, #179, #233, #163 ) ) ;
#305 = PERSON_AND_ORGANIZATION_ROLE ( 'design_owner' ) ;
#306 = ADVANCED_FACE ( 'NONE', ( #164 ), #189, .T. ) ;
#307 = ORIENTED_EDGE ( 'NONE', *, *, #214, .F. ) ;
#308 = DATE_AND_TIME ( #24, #38 ) ;
#309 = ORIENTED_EDGE ( 'NONE', *, *, #21, .F. ) ;
#310 = DIRECTION ( 'NONE',  ( -4.275831445896958607E-31, -1.000000000000000000, -1.224646799147353207E-16 ) ) ;
#311 = PERSON_AND_ORGANIZATION ( #250, #276 ) ;
#312 = VECTOR ( 'NONE', #82, 1000.000000000000000 ) ;
#313 = EDGE_LOOP ( 'NONE', ( #22, #15 ) ) ;
#314 = CARTESIAN_POINT ( 'NONE',  ( 2.202788320509484980E-15, -1.049999999999989830, 0.6309036499789388852 ) ) ;
#315 = EDGE_CURVE ( 'NONE', #297, #277, #302, .T. ) ;
#316 = PERSON_AND_ORGANIZATION ( #250, #276 ) ;
#317 = LINE ( 'NONE', #210, #298 ) ;
#318 = ADVANCED_BREP_SHAPE_REPRESENTATION ( '39757', ( #55, #63, #165 ), #83 ) ;
#319 = AXIS2_PLACEMENT_3D ( 'NONE', #196, #248, #74 ) ;
#320 = CC_DESIGN_SECURITY_CLASSIFICATION ( #54, ( #66 ) ) ;
#321 = CARTESIAN_POINT ( 'NONE',  ( 1.285879139104704462E-16, -1.049999999999990274, -1.285879139104713336E-16 ) ) ;
#322 = DIRECTION ( 'NONE',  ( 3.668437989309056247E-31, 1.000000000000000000, 1.032573497605252331E-16 ) ) ;
#323 = CC_DESIGN_PERSON_AND_ORGANIZATION_ASSIGNMENT ( #13, #28, ( #66 ) ) ;
#324 = DIRECTION ( 'NONE',  ( -3.491481338843133355E-15, 1.224646799147353207E-16, -1.000000000000000000 ) ) ;
#325 = VERTEX_POINT ( 'NONE', #292 ) ;
#326 = CLOSED_SHELL ( 'NONE', ( #306, #111, #190, #327, #104, #48 ) ) ;
#327 = ADVANCED_FACE ( 'NONE', ( #268 ), #144, .T. ) ;
#328 = DATE_AND_TIME ( #91, #255 ) ;
#329 = CARTESIAN_POINT ( 'NONE',  ( 0.0000000000000000000, 0.0000000000000000000, 0.0000000000000000000 ) ) ;
#330 = UNCERTAINTY_MEASURE_WITH_UNIT (LENGTH_MEASURE( 1.000000000000000082E-05 ), #192, 'distance_accuracy_value', 'NONE');
#331 = CARTESIAN_POINT ( 'NONE',  ( 1.326762908760390423E-13, -4.653657836759941941E-15, 38.00000000000000000 ) ) ;
#332 = VECTOR ( 'NONE', #171, 1000.000000000000000 ) ;
#333 = PLANE ( 'NONE',  #76 ) ;
#334 = APPROVAL_PERSON_ORGANIZATION ( #311, #73, #259 ) ;
#335 = ORIENTED_EDGE ( 'NONE', *, *, #1, .F. ) ;
#336 = ORIENTED_EDGE ( 'NONE', *, *, #264, .F. ) ;
#337 = CARTESIAN_POINT ( 'NONE',  ( 2.202788320509485374E-15, -7.726341355170897583E-17, 0.6309036499789389962 ) ) ;
ENDSEC;
END-ISO-10303-21;
