ISO-10303-21;
HEADER;
FILE_DESCRIPTION (( 'STEP AP203' ),
    '1' );
FILE_NAME ('39660.step',
    '2021-09-03T07:22:05',
    ( '' ),
    ( '' ),
    'SwSTEP 2.0',
    'SolidWorks 2019',
    '' );
FILE_SCHEMA (( 'CONFIG_CONTROL_DESIGN' ));
ENDSEC;

DATA;
#1 = ORIENTED_EDGE ( 'NONE', *, *, #329, .F. ) ;
#2 = PRODUCT_DEFINITION_FORMATION_WITH_SPECIFIED_SOURCE ( 'ANY', '', #225, .NOT_KNOWN. ) ;
#3 = EDGE_CURVE ( 'NONE', #275, #64, #39, .T. ) ;
#4 = ORIENTED_EDGE ( 'NONE', *, *, #9, .T. ) ;
#5 = APPROVAL_ROLE ( '' ) ;
#6 = APPROVAL_STATUS ( 'not_yet_approved' ) ;
#7 = CARTESIAN_POINT ( 'NONE',  ( 2.932844324628232018E-13, -1.028703311283776980E-14, 84.00000000000000000 ) ) ;
#8 = CC_DESIGN_APPROVAL ( #293, ( #279 ) ) ;
#9 = EDGE_CURVE ( 'NONE', #22, #324, #112, .T. ) ;
#10 =( NAMED_UNIT ( * ) PLANE_ANGLE_UNIT ( ) SI_UNIT ( $, .RADIAN. ) );
#11 =( NAMED_UNIT ( * ) SI_UNIT ( $, .STERADIAN. ) SOLID_ANGLE_UNIT ( ) );
#12 = DIRECTION ( 'NONE',  ( -3.491481338843133355E-15, 1.224646799147353454E-16, -1.000000000000000000 ) ) ;
#13 = ORIENTED_EDGE ( 'NONE', *, *, #329, .T. ) ;
#14 = EDGE_CURVE ( 'NONE', #138, #42, #106, .T. ) ;
#15 = CARTESIAN_POINT ( 'NONE',  ( 2.937681679484863943E-13, -3.950000000000016165, 84.00000000000000000 ) ) ;
#16 = PRODUCT_DEFINITION_SHAPE ( 'NONE', 'NONE',  #279 ) ;
#17 = CARTESIAN_POINT ( 'NONE',  ( 2.932844324628232018E-13, -1.028703311283776980E-14, 84.00000000000000000 ) ) ;
#18 = ADVANCED_FACE ( 'NONE', ( #136 ), #195, .T. ) ;
#19 = ORIENTED_EDGE ( 'NONE', *, *, #204, .T. ) ;
#20 = AXIS2_PLACEMENT_3D ( 'NONE', #69, #251, #148 ) ;
#21 = CARTESIAN_POINT ( 'NONE',  ( 1.012529588264508799E-13, -3.551475717527325607E-15, 29.00000000000000355 ) ) ;
#22 = VERTEX_POINT ( 'NONE', #307 ) ;
#23 = APPROVAL_DATE_TIME ( #256, #293 ) ;
#24 = ADVANCED_FACE ( 'NONE', ( #248 ), #175, .T. ) ;
#25 = DIRECTION ( 'NONE',  ( 0.0000000000000000000, 1.000000000000000000, 0.0000000000000000000 ) ) ;
#26 = AXIS2_PLACEMENT_3D ( 'NONE', #130, #53, #54 ) ;
#27 = AXIS2_PLACEMENT_3D ( 'NONE', #226, #96, #30 ) ;
#28 = CARTESIAN_POINT ( 'NONE',  ( 1.012529588264508799E-13, 4.749999999999995559, 29.00000000000000355 ) ) ;
#29 = DIRECTION ( 'NONE',  ( 1.798245827342160317E-15, -0.8571673007021098911, 0.5150380749100582634 ) ) ;
#30 = DIRECTION ( 'NONE',  ( 4.275831445896959482E-31, 1.000000000000000000, 1.224646799147353454E-16 ) ) ;
#31 = ORIENTED_EDGE ( 'NONE', *, *, #82, .F. ) ;
#32 = CIRCLE ( 'NONE', #168, 4.749999999999995559 ) ;
#33 = DIRECTION ( 'NONE',  ( -3.491481338843133355E-15, 1.224646799147353454E-16, -1.000000000000000000 ) ) ;
#34 = DIRECTION ( 'NONE',  ( -3.491481338843133355E-15, 1.224646799147353454E-16, -1.000000000000000000 ) ) ;
#35 = PERSON_AND_ORGANIZATION ( #153, #88 ) ;
#36 = ORIENTED_EDGE ( 'NONE', *, *, #159, .T. ) ;
#37 = APPROVAL_DATE_TIME ( #267, #272 ) ;
#38 = DIRECTION ( 'NONE',  ( 3.243671485283768505E-31, 1.000000000000000000, 9.130123557772676962E-17 ) ) ;
#39 = LINE ( 'NONE', #332, #162 ) ;
#40 = ORIENTED_EDGE ( 'NONE', *, *, #46, .F. ) ;
#41 = PERSON_AND_ORGANIZATION_ROLE ( 'design_supplier' ) ;
#42 = VERTEX_POINT ( 'NONE', #76 ) ;
#43 = ORIENTED_EDGE ( 'NONE', *, *, #245, .F. ) ;
#44 = DIRECTION ( 'NONE',  ( -3.491481338843133355E-15, 1.224646799147353454E-16, -1.000000000000000000 ) ) ;
#45 = CARTESIAN_POINT ( 'NONE',  ( 1.054670201285228005E-14, 4.749999999999995559, 2.854087940380940491 ) ) ;
#46 = EDGE_CURVE ( 'NONE', #275, #42, #207, .T. ) ;
#47 = ORIENTED_EDGE ( 'NONE', *, *, #46, .T. ) ;
#48 = CLOSED_SHELL ( 'NONE', ( #252, #218, #98, #126, #299 ) ) ;
#49 = CIRCLE ( 'NONE', #295, 4.749999999999995559 ) ;
#50 = CALENDAR_DATE ( 2021, 3, 9 ) ;
#51 = APPROVAL_ROLE ( '' ) ;
#52 = EDGE_LOOP ( 'NONE', ( #36, #115, #40, #220 ) ) ;
#53 = DIRECTION ( 'NONE',  ( -3.491481338843133355E-15, 1.224646799147353454E-16, -1.000000000000000000 ) ) ;
#54 = DIRECTION ( 'NONE',  ( 0.0000000000000000000, 1.000000000000000000, 0.0000000000000000000 ) ) ;
#55 = PERSON_AND_ORGANIZATION ( #153, #88 ) ;
#56 = VECTOR ( 'NONE', #128, 1000.000000000000114 ) ;
#57 = CARTESIAN_POINT ( 'NONE',  ( 2.904912473917487456E-13, -1.018906136890598294E-14, 83.20000000000001705 ) ) ;
#58 = VECTOR ( 'NONE', #29, 1000.000000000000000 ) ;
#59 = CYLINDRICAL_SURFACE ( 'NONE', #325, 4.749999999999997335 ) ;
#60 = ORIENTED_EDGE ( 'NONE', *, *, #181, .T. ) ;
#61 = EDGE_CURVE ( 'NONE', #321, #275, #180, .T. ) ;
#62 = CARTESIAN_POINT ( 'NONE',  ( 0.0000000000000000000, 0.0000000000000000000, 0.0000000000000000000 ) ) ;
#63 = CARTESIAN_POINT ( 'NONE',  ( 9.964994783257286515E-15, -3.495249660672581042E-16, 2.854087940380940047 ) ) ;
#64 = VERTEX_POINT ( 'NONE', #320 ) ;
#65 = DESIGN_CONTEXT ( 'detailed design', #189, 'design' ) ;
#66 = EDGE_LOOP ( 'NONE', ( #190, #4, #246 ) ) ;
#67 = CARTESIAN_POINT ( 'NONE',  ( 2.932844324628232018E-13, 2.962025570757158649E-32, 84.00000000000000000 ) ) ;
#68 = CIRCLE ( 'NONE', #107, 4.749999999999999112 ) ;
#69 = CARTESIAN_POINT ( 'NONE',  ( 0.0000000000000000000, 0.0000000000000000000, 0.0000000000000000000 ) ) ;
#70 = ORIENTED_EDGE ( 'NONE', *, *, #192, .F. ) ;
#71 = DIRECTION ( 'NONE',  ( 3.491481338843133355E-15, -1.224646799147353454E-16, 1.000000000000000000 ) ) ;
#72 = PERSON_AND_ORGANIZATION ( #153, #88 ) ;
#73 = FACE_OUTER_BOUND ( 'NONE', #215, .T. ) ;
#74 = AXIS2_PLACEMENT_3D ( 'NONE', #17, #89, #191 ) ;
#75 = APPROVAL_ROLE ( '' ) ;
#76 = CARTESIAN_POINT ( 'NONE',  ( 1.964538103386946343E-13, -4.750000000000016875, 83.20000000000001705 ) ) ;
#77 = DIRECTION ( 'NONE',  ( 0.0000000000000000000, 1.000000000000000000, 0.0000000000000000000 ) ) ;
#78 = EDGE_CURVE ( 'NONE', #188, #110, #232, .T. ) ;
#79 = AXIS2_PLACEMENT_3D ( 'NONE', #237, #315, #228 ) ;
#80 = APPLICATION_PROTOCOL_DEFINITION ( 'international standard', 'config_control_design', 1994, #189 ) ;
#81 = APPLICATION_CONTEXT ( 'configuration controlled 3d designs of mechanical parts and assemblies' ) ;
#82 = EDGE_CURVE ( 'NONE', #64, #203, #173, .T. ) ;
#83 = MECHANICAL_CONTEXT ( 'NONE', #81, 'mechanical' ) ;
#84 = AXIS2_PLACEMENT_3D ( 'NONE', #197, #313, #281 ) ;
#85 = VERTEX_POINT ( 'NONE', #28 ) ;
#86 = SECURITY_CLASSIFICATION_LEVEL ( 'unclassified' ) ;
#87 = PERSON_AND_ORGANIZATION ( #153, #88 ) ;
#88 = ORGANIZATION ( 'UNSPECIFIED', 'UNSPECIFIED', '' ) ;
#89 = DIRECTION ( 'NONE',  ( -3.491481338843133355E-15, 1.224646799147353454E-16, -1.000000000000000000 ) ) ;
#90 = COORDINATED_UNIVERSAL_TIME_OFFSET ( 1, 0, .AHEAD. ) ;
#91 = CC_DESIGN_DATE_AND_TIME_ASSIGNMENT ( #210, #165, ( #102 ) ) ;
#92 = VECTOR ( 'NONE', #216, 1000.000000000000000 ) ;
#93 = EDGE_LOOP ( 'NONE', ( #118, #1 ) ) ;
#94 = APPROVAL_DATE_TIME ( #280, #238 ) ;
#95 = LOCAL_TIME ( 9, 22, 5.000000000000000000, #90 ) ;
#96 = DIRECTION ( 'NONE',  ( -3.491481338843133355E-15, 1.224646799147353454E-16, -1.000000000000000000 ) ) ;
#97 = LINE ( 'NONE', #152, #58 ) ;
#98 = ADVANCED_FACE ( 'NONE', ( #73 ), #283, .T. ) ;
#99 = DIRECTION ( 'NONE',  ( -3.243671485283768505E-31, -1.000000000000000000, -9.130123557772676962E-17 ) ) ;
#100 = PERSON_AND_ORGANIZATION_ROLE ( 'design_owner' ) ;
#101 = AXIS2_PLACEMENT_3D ( 'NONE', #57, #33, #201 ) ;
#102 = SECURITY_CLASSIFICATION ( '', '', #86 ) ;
#103 = DIRECTION ( 'NONE',  ( -3.491481338843133355E-15, 1.224646799147353454E-16, -1.000000000000000000 ) ) ;
#104 = DIRECTION ( 'NONE',  ( 3.491481338843133355E-15, -1.224646799147353454E-16, 1.000000000000000000 ) ) ;
#105 = CARTESIAN_POINT ( 'NONE',  ( 9.964994783257286515E-15, -3.495249660672581042E-16, 2.854087940380940047 ) ) ;
#106 = LINE ( 'NONE', #15, #234 ) ;
#107 = AXIS2_PLACEMENT_3D ( 'NONE', #21, #193, #123 ) ;
#108 = PERSON_AND_ORGANIZATION_ROLE ( 'classification_officer' ) ;
#109 = CARTESIAN_POINT ( 'NONE',  ( 2.924205612849149997E-13, -3.950000000000016165, 84.00000000000000000 ) ) ;
#110 = VERTEX_POINT ( 'NONE', #111 ) ;
#111 = CARTESIAN_POINT ( 'NONE',  ( 9.964994783257284937E-15, -4.749999999999995559, 2.854087940380939603 ) ) ;
#112 = LINE ( 'NONE', #290, #199 ) ;
#113 = DIRECTION ( 'NONE',  ( 1.000000000000000000, 0.0000000000000000000, 0.0000000000000000000 ) ) ;
#114 = CC_DESIGN_DATE_AND_TIME_ASSIGNMENT ( #143, #304, ( #279 ) ) ;
#115 = ORIENTED_EDGE ( 'NONE', *, *, #14, .T. ) ;
#116 = CARTESIAN_POINT ( 'NONE',  ( 0.0000000000000000000, 0.0000000000000000000, 0.0000000000000000000 ) ) ;
#117 = CARTESIAN_POINT ( 'NONE',  ( 0.0000000000000000000, 0.0000000000000000000, 0.0000000000000000000 ) ) ;
#118 = ORIENTED_EDGE ( 'NONE', *, *, #159, .F. ) ;
#119 = ADVANCED_FACE ( 'NONE', ( #208 ), #184, .T. ) ;
#120 = ORIENTED_EDGE ( 'NONE', *, *, #314, .F. ) ;
#121 = CC_DESIGN_PERSON_AND_ORGANIZATION_ASSIGNMENT ( #35, #100, ( #225 ) ) ;
#122 = CARTESIAN_POINT ( 'NONE',  ( 2.932844324628232018E-13, 3.949999999999995293, 84.00000000000000000 ) ) ;
#123 = DIRECTION ( 'NONE',  ( 0.0000000000000000000, 1.000000000000000000, 0.0000000000000000000 ) ) ;
#124 = CARTESIAN_POINT ( 'NONE',  ( 5.817072295949904746E-16, -4.749999999999997335, -5.817072295949945175E-16 ) ) ;
#125 = DIRECTION ( 'NONE',  ( -3.491481338843133355E-15, 1.224646799147353454E-16, -1.000000000000000000 ) ) ;
#126 = ADVANCED_FACE ( 'NONE', ( #235 ), #59, .T. ) ;
#127 = CARTESIAN_POINT ( 'NONE',  ( 9.964994783257286515E-15, -3.495249660672581042E-16, 2.854087940380940047 ) ) ;
#128 = DIRECTION ( 'NONE',  ( -2.468850131082256666E-15, 0.7071067811865500152, -0.7071067811865451302 ) ) ;
#129 = CONICAL_SURFACE ( 'NONE', #270, 4.749999999999995559, 1.029744258676649649 ) ;
#130 = CARTESIAN_POINT ( 'NONE',  ( 2.932844324628232018E-13, -1.028703311283776980E-14, 84.00000000000000000 ) ) ;
#131 = CARTESIAN_POINT ( 'NONE',  ( 1.964538103386947353E-13, -4.750000000000002665, 29.00000000000000355 ) ) ;
#132 = ORIENTED_EDGE ( 'NONE', *, *, #78, .T. ) ;
#133 = ORIENTED_EDGE ( 'NONE', *, *, #212, .T. ) ;
#134 = LOCAL_TIME ( 9, 22, 5.000000000000000000, #174 ) ;
#135 = EDGE_CURVE ( 'NONE', #110, #324, #32, .T. ) ;
#136 = FACE_OUTER_BOUND ( 'NONE', #156, .T. ) ;
#137 = EDGE_LOOP ( 'NONE', ( #336, #19 ) ) ;
#138 = VERTEX_POINT ( 'NONE', #109 ) ;
#139 = CC_DESIGN_PERSON_AND_ORGANIZATION_ASSIGNMENT ( #241, #214, ( #2 ) ) ;
#140 = LOCAL_TIME ( 9, 22, 5.000000000000000000, #194 ) ;
#141 = ORIENTED_EDGE ( 'NONE', *, *, #245, .T. ) ;
#142 = DIRECTION ( 'NONE',  ( -3.491481338843133355E-15, 1.224646799147353454E-16, -1.000000000000000000 ) ) ;
#143 = DATE_AND_TIME ( #337, #134 ) ;
#144 = PRODUCT_RELATED_PRODUCT_CATEGORY ( 'detail', '', ( #225 ) ) ;
#145 = AXIS2_PLACEMENT_3D ( 'NONE', #205, #330, #155 ) ;
#146 = CARTESIAN_POINT ( 'NONE',  ( 9.964994783257286515E-15, -3.495249660672581042E-16, 2.854087940380940047 ) ) ;
#147 = ORIENTED_EDGE ( 'NONE', *, *, #3, .F. ) ;
#148 = DIRECTION ( 'NONE',  ( 4.275831445896960358E-31, 1.000000000000000000, 1.224646799147353454E-16 ) ) ;
#149 = MANIFOLD_SOLID_BREP ( 'Corps-Déplacer/Copier1[2]', #48 ) ;
#150 = ADVANCED_FACE ( 'NONE', ( #328 ), #310, .F. ) ;
#151 = DIRECTION ( 'NONE',  ( 4.275831445896959482E-31, 1.000000000000000000, 1.224646799147353454E-16 ) ) ;
#152 = CARTESIAN_POINT ( 'NONE',  ( 9.964994783257284937E-15, -4.749999999999995559, 2.854087940380939603 ) ) ;
#153 = PERSON ( 'UNSPECIFIED', 'UNSPECIFIED', 'UNSPECIFIED', ('UNSPECIFIED'), ('UNSPECIFIED'), ('UNSPECIFIED') ) ;
#154 = FACE_OUTER_BOUND ( 'NONE', #66, .T. ) ;
#155 = DIRECTION ( 'NONE',  ( 0.0000000000000000000, 1.000000000000000000, 0.0000000000000000000 ) ) ;
#156 = EDGE_LOOP ( 'NONE', ( #120, #230, #269, #164 ) ) ;
#157 = DIRECTION ( 'NONE',  ( 4.275831445896960358E-31, 1.000000000000000000, 1.224646799147353454E-16 ) ) ;
#158 = ORIENTED_EDGE ( 'NONE', *, *, #14, .F. ) ;
#159 = EDGE_CURVE ( 'NONE', #321, #138, #178, .T. ) ;
#160 = DIRECTION ( 'NONE',  ( -2.382254525458707609E-15, -0.7071067811865497932, -0.7071067811865453523 ) ) ;
#161 = ORIENTED_EDGE ( 'NONE', *, *, #306, .F. ) ;
#162 = VECTOR ( 'NONE', #12, 1000.000000000000000 ) ;
#163 = AXIS2_PLACEMENT_3D ( 'NONE', #63, #242, #187 ) ;
#164 = ORIENTED_EDGE ( 'NONE', *, *, #204, .F. ) ;
#165 = DATE_TIME_ROLE ( 'classification_date' ) ;
#166 = UNCERTAINTY_MEASURE_WITH_UNIT (LENGTH_MEASURE( 1.000000000000000082E-05 ), #227, 'distance_accuracy_value', 'NONE');
#167 = EDGE_LOOP ( 'NONE', ( #211, #243, #141, #292 ) ) ;
#168 = AXIS2_PLACEMENT_3D ( 'NONE', #105, #268, #38 ) ;
#169 = LOCAL_TIME ( 9, 22, 5.000000000000000000, #179 ) ;
#170 = ADVANCED_FACE ( 'NONE', ( #298 ), #182, .F. ) ;
#171 = LINE ( 'NONE', #276, #294 ) ;
#172 = APPROVAL_STATUS ( 'not_yet_approved' ) ;
#173 = CIRCLE ( 'NONE', #84, 4.749999999999999112 ) ;
#174 = COORDINATED_UNIVERSAL_TIME_OFFSET ( 1, 0, .AHEAD. ) ;
#175 = CYLINDRICAL_SURFACE ( 'NONE', #27, 4.750000000000002665 ) ;
#176 = CC_DESIGN_PERSON_AND_ORGANIZATION_ASSIGNMENT ( #87, #41, ( #2 ) ) ;
#177 = DIRECTION ( 'NONE',  ( -3.491481338843133355E-15, 1.224646799147353454E-16, -1.000000000000000000 ) ) ;
#178 = CIRCLE ( 'NONE', #74, 3.950000000000005507 ) ;
#179 = COORDINATED_UNIVERSAL_TIME_OFFSET ( 1, 0, .AHEAD. ) ;
#180 = LINE ( 'NONE', #202, #56 ) ;
#181 = EDGE_CURVE ( 'NONE', #85, #188, #286, .T. ) ;
#182 = PLANE ( 'NONE',  #309 ) ;
#183 = VECTOR ( 'NONE', #229, 1000.000000000000000 ) ;
#184 = CONICAL_SURFACE ( 'NONE', #145, 3.950000000000005507, 0.7853981633974516097 ) ;
#185 = FACE_OUTER_BOUND ( 'NONE', #217, .T. ) ;
#186 = ADVANCED_FACE ( 'NONE', ( #185 ), #221, .T. ) ;
#187 = DIRECTION ( 'NONE',  ( -3.243671485283768505E-31, -1.000000000000000000, -9.130123557772676962E-17 ) ) ;
#188 = VERTEX_POINT ( 'NONE', #264 ) ;
#189 = APPLICATION_CONTEXT ( 'configuration controlled 3d designs of mechanical parts and assemblies' ) ;
#190 = ORIENTED_EDGE ( 'NONE', *, *, #212, .F. ) ;
#191 = DIRECTION ( 'NONE',  ( 0.0000000000000000000, 1.000000000000000000, 0.0000000000000000000 ) ) ;
#192 = EDGE_CURVE ( 'NONE', #42, #275, #262, .T. ) ;
#193 = DIRECTION ( 'NONE',  ( -3.491481338843133355E-15, 1.224646799147353454E-16, -1.000000000000000000 ) ) ;
#194 = COORDINATED_UNIVERSAL_TIME_OFFSET ( 1, 0, .AHEAD. ) ;
#195 = CYLINDRICAL_SURFACE ( 'NONE', #333, 4.750000000000002665 ) ;
#196 = PERSON_AND_ORGANIZATION ( #153, #88 ) ;
#197 = CARTESIAN_POINT ( 'NONE',  ( 1.012529588264508799E-13, -3.551475717527325607E-15, 29.00000000000000355 ) ) ;
#198 = AXIS2_PLACEMENT_3D ( 'NONE', #312, #71, #224 ) ;
#199 = VECTOR ( 'NONE', #239, 999.9999999999998863 ) ;
#200 = CC_DESIGN_PERSON_AND_ORGANIZATION_ASSIGNMENT ( #247, #108, ( #102 ) ) ;
#201 = DIRECTION ( 'NONE',  ( 0.0000000000000000000, 1.000000000000000000, 0.0000000000000000000 ) ) ;
#202 = CARTESIAN_POINT ( 'NONE',  ( 2.932844324628232018E-13, 3.949999999999995293, 84.00000000000000000 ) ) ;
#203 = VERTEX_POINT ( 'NONE', #131 ) ;
#204 = EDGE_CURVE ( 'NONE', #203, #64, #206, .T. ) ;
#205 = CARTESIAN_POINT ( 'NONE',  ( 2.932844324628232018E-13, -1.028703311283776980E-14, 84.00000000000000000 ) ) ;
#206 = CIRCLE ( 'NONE', #79, 4.749999999999999112 ) ;
#207 = CIRCLE ( 'NONE', #288, 4.750000000000006217 ) ;
#208 = FACE_OUTER_BOUND ( 'NONE', #52, .T. ) ;
#209 = ORIENTED_EDGE ( 'NONE', *, *, #9, .F. ) ;
#210 = DATE_AND_TIME ( #244, #287 ) ;
#211 = ORIENTED_EDGE ( 'NONE', *, *, #78, .F. ) ;
#212 = EDGE_CURVE ( 'NONE', #22, #110, #97, .T. ) ;
#213 = APPROVAL_PERSON_ORGANIZATION ( #335, #238, #5 ) ;
#214 = PERSON_AND_ORGANIZATION_ROLE ( 'creator' ) ;
#215 = EDGE_LOOP ( 'NONE', ( #209, #133, #250 ) ) ;
#216 = DIRECTION ( 'NONE',  ( -3.491481338843133355E-15, 1.224646799147353454E-16, -1.000000000000000000 ) ) ;
#217 = EDGE_LOOP ( 'NONE', ( #158, #13, #300, #70 ) ) ;
#218 = ADVANCED_FACE ( 'NONE', ( #154 ), #129, .T. ) ;
#219 = DIRECTION ( 'NONE',  ( -3.491481338843133355E-15, 1.224646799147353454E-16, -1.000000000000000000 ) ) ;
#220 = ORIENTED_EDGE ( 'NONE', *, *, #61, .F. ) ;
#221 = CONICAL_SURFACE ( 'NONE', #26, 3.950000000000005507, 0.7853981633974516097 ) ;
#222 = DIRECTION ( 'NONE',  ( 4.275831445896959482E-31, 1.000000000000000000, 1.224646799147353454E-16 ) ) ;
#223 = EDGE_LOOP ( 'NONE', ( #47, #236, #31, #147 ) ) ;
#224 = DIRECTION ( 'NONE',  ( -4.275831445896959482E-31, -1.000000000000000000, -1.224646799147353454E-16 ) ) ;
#225 = PRODUCT ( '39660', '39660', '', ( #83 ) ) ;
#226 = CARTESIAN_POINT ( 'NONE',  ( 0.0000000000000000000, 0.0000000000000000000, 0.0000000000000000000 ) ) ;
#227 =( LENGTH_UNIT ( ) NAMED_UNIT ( * ) SI_UNIT ( .MILLI., .METRE. ) );
#228 = DIRECTION ( 'NONE',  ( 0.0000000000000000000, 1.000000000000000000, 0.0000000000000000000 ) ) ;
#229 = DIRECTION ( 'NONE',  ( -3.491481338843133355E-15, 1.224646799147353454E-16, -1.000000000000000000 ) ) ;
#230 = ORIENTED_EDGE ( 'NONE', *, *, #192, .T. ) ;
#231 = DIRECTION ( 'NONE',  ( 3.491481338843133355E-15, -1.224646799147353454E-16, 1.000000000000000000 ) ) ;
#232 = LINE ( 'NONE', #124, #183 ) ;
#233 = CC_DESIGN_PERSON_AND_ORGANIZATION_ASSIGNMENT ( #196, #311, ( #279 ) ) ;
#234 = VECTOR ( 'NONE', #160, 1000.000000000000114 ) ;
#235 = FACE_OUTER_BOUND ( 'NONE', #167, .T. ) ;
#236 = ORIENTED_EDGE ( 'NONE', *, *, #314, .T. ) ;
#237 = CARTESIAN_POINT ( 'NONE',  ( 1.012529588264508799E-13, -3.551475717527325607E-15, 29.00000000000000355 ) ) ;
#238 = APPROVAL ( #316, 'UNSPECIFIED' ) ;
#239 = DIRECTION ( 'NONE',  ( 1.903218546456022717E-15, 0.8571673007021097801, 0.5150380749100585964 ) ) ;
#240 =( GEOMETRIC_REPRESENTATION_CONTEXT ( 3 ) GLOBAL_UNCERTAINTY_ASSIGNED_CONTEXT ( ( #166 ) ) GLOBAL_UNIT_ASSIGNED_CONTEXT ( ( #227, #10, #11 ) ) REPRESENTATION_CONTEXT ( 'NONE', 'WORKASPACE' ) );
#241 = PERSON_AND_ORGANIZATION ( #153, #88 ) ;
#242 = DIRECTION ( 'NONE',  ( 3.491481338843133355E-15, -1.224646799147353454E-16, 1.000000000000000000 ) ) ;
#243 = ORIENTED_EDGE ( 'NONE', *, *, #282, .T. ) ;
#244 = CALENDAR_DATE ( 2021, 3, 9 ) ;
#245 = EDGE_CURVE ( 'NONE', #85, #324, #317, .T. ) ;
#246 = ORIENTED_EDGE ( 'NONE', *, *, #306, .T. ) ;
#247 = PERSON_AND_ORGANIZATION ( #153, #88 ) ;
#248 = FACE_OUTER_BOUND ( 'NONE', #223, .T. ) ;
#249 = CC_DESIGN_SECURITY_CLASSIFICATION ( #102, ( #2 ) ) ;
#250 = ORIENTED_EDGE ( 'NONE', *, *, #135, .T. ) ;
#251 = DIRECTION ( 'NONE',  ( -3.491481338843133355E-15, 1.224646799147353454E-16, -1.000000000000000000 ) ) ;
#252 = ADVANCED_FACE ( 'NONE', ( #257 ), #253, .T. ) ;
#253 = CYLINDRICAL_SURFACE ( 'NONE', #20, 4.749999999999997335 ) ;
#254 = AXIS2_PLACEMENT_3D ( 'NONE', #67, #177, #151 ) ;
#255 = DIRECTION ( 'NONE',  ( -3.491481338843133355E-15, 1.224646799147353454E-16, -1.000000000000000000 ) ) ;
#256 = DATE_AND_TIME ( #50, #140 ) ;
#257 = FACE_OUTER_BOUND ( 'NONE', #265, .T. ) ;
#258 = SHAPE_DEFINITION_REPRESENTATION ( #16, #289 ) ;
#259 = AXIS2_PLACEMENT_3D ( 'NONE', #284, #125, #322 ) ;
#260 = CARTESIAN_POINT ( 'NONE',  ( 2.904912473917487456E-13, -1.018906136890598294E-14, 83.20000000000001705 ) ) ;
#261 = MANIFOLD_SOLID_BREP ( 'Corps-Déplacer/Copier1[1]', #318 ) ;
#262 = CIRCLE ( 'NONE', #101, 4.750000000000006217 ) ;
#263 = APPROVAL_PERSON_ORGANIZATION ( #72, #272, #75 ) ;
#264 = CARTESIAN_POINT ( 'NONE',  ( 5.619068403444905230E-14, -4.750000000000002665, 29.00000000000000355 ) ) ;
#265 = EDGE_LOOP ( 'NONE', ( #60, #132, #161, #43 ) ) ;
#266 = DIRECTION ( 'NONE',  ( -4.275831445896959482E-31, -1.000000000000000000, -1.224646799147353454E-16 ) ) ;
#267 = DATE_AND_TIME ( #274, #95 ) ;
#268 = DIRECTION ( 'NONE',  ( -3.491481338843133355E-15, 1.224646799147353454E-16, -1.000000000000000000 ) ) ;
#269 = ORIENTED_EDGE ( 'NONE', *, *, #3, .T. ) ;
#270 = AXIS2_PLACEMENT_3D ( 'NONE', #127, #231, #99 ) ;
#271 = COORDINATED_UNIVERSAL_TIME_OFFSET ( 1, 0, .AHEAD. ) ;
#272 = APPROVAL ( #172, 'UNSPECIFIED' ) ;
#273 = ORIENTED_EDGE ( 'NONE', *, *, #181, .F. ) ;
#274 = CALENDAR_DATE ( 2021, 3, 9 ) ;
#275 = VERTEX_POINT ( 'NONE', #303 ) ;
#276 = CARTESIAN_POINT ( 'NONE',  ( 5.817072295949910663E-16, -4.750000000000002665, -5.817072295949951092E-16 ) ) ;
#277 = AXIS2_PLACEMENT_3D ( 'NONE', #117, #327, #113 ) ;
#278 = CALENDAR_DATE ( 2021, 3, 9 ) ;
#279 = PRODUCT_DEFINITION ( 'UNKNOWN', '', #2, #65 ) ;
#280 = DATE_AND_TIME ( #278, #169 ) ;
#281 = DIRECTION ( 'NONE',  ( 0.0000000000000000000, 1.000000000000000000, 0.0000000000000000000 ) ) ;
#282 = EDGE_CURVE ( 'NONE', #188, #85, #68, .T. ) ;
#283 = CONICAL_SURFACE ( 'NONE', #163, 4.749999999999995559, 1.029744258676649649 ) ;
#284 = CARTESIAN_POINT ( 'NONE',  ( 1.012529588264508799E-13, -3.551475717527325607E-15, 29.00000000000000355 ) ) ;
#285 = CARTESIAN_POINT ( 'NONE',  ( 1.012529588264508799E-13, 3.561929483821907713E-32, 29.00000000000000355 ) ) ;
#286 = CIRCLE ( 'NONE', #259, 4.749999999999999112 ) ;
#287 = LOCAL_TIME ( 9, 22, 5.000000000000000000, #271 ) ;
#288 = AXIS2_PLACEMENT_3D ( 'NONE', #260, #103, #25 ) ;
#289 = ADVANCED_BREP_SHAPE_REPRESENTATION ( '39660', ( #261, #149, #277 ), #240 ) ;
#290 = CARTESIAN_POINT ( 'NONE',  ( 1.054670201285228005E-14, 4.749999999999995559, 2.854087940380940491 ) ) ;
#291 = APPLICATION_PROTOCOL_DEFINITION ( 'international standard', 'config_control_design', 1994, #81 ) ;
#292 = ORIENTED_EDGE ( 'NONE', *, *, #135, .F. ) ;
#293 = APPROVAL ( #6, 'UNSPECIFIED' ) ;
#294 = VECTOR ( 'NONE', #255, 1000.000000000000000 ) ;
#295 = AXIS2_PLACEMENT_3D ( 'NONE', #146, #44, #308 ) ;
#296 = CC_DESIGN_APPROVAL ( #238, ( #102 ) ) ;
#297 = CARTESIAN_POINT ( 'NONE',  ( 2.031019936801054856E-30, 4.749999999999997335, 5.817072295949925454E-16 ) ) ;
#298 = FACE_OUTER_BOUND ( 'NONE', #137, .T. ) ;
#299 = ADVANCED_FACE ( 'NONE', ( #302 ), #305, .T. ) ;
#300 = ORIENTED_EDGE ( 'NONE', *, *, #61, .T. ) ;
#301 = AXIS2_PLACEMENT_3D ( 'NONE', #7, #142, #77 ) ;
#302 = FACE_OUTER_BOUND ( 'NONE', #334, .T. ) ;
#303 = CARTESIAN_POINT ( 'NONE',  ( 2.904912473917487456E-13, 4.749999999999995559, 83.20000000000001705 ) ) ;
#304 = DATE_TIME_ROLE ( 'creation_date' ) ;
#305 = PLANE ( 'NONE',  #198 ) ;
#306 = EDGE_CURVE ( 'NONE', #324, #110, #49, .T. ) ;
#307 = CARTESIAN_POINT ( 'NONE',  ( 0.0000000000000000000, 0.0000000000000000000, 0.0000000000000000000 ) ) ;
#308 = DIRECTION ( 'NONE',  ( 3.243671485283768505E-31, 1.000000000000000000, 9.130123557772676962E-17 ) ) ;
#309 = AXIS2_PLACEMENT_3D ( 'NONE', #285, #104, #266 ) ;
#310 = PLANE ( 'NONE',  #254 ) ;
#311 = PERSON_AND_ORGANIZATION_ROLE ( 'creator' ) ;
#312 = CARTESIAN_POINT ( 'NONE',  ( 1.012529588264508799E-13, 3.561929483821907713E-32, 29.00000000000000355 ) ) ;
#313 = DIRECTION ( 'NONE',  ( -3.491481338843133355E-15, 1.224646799147353454E-16, -1.000000000000000000 ) ) ;
#314 = EDGE_CURVE ( 'NONE', #42, #203, #171, .T. ) ;
#315 = DIRECTION ( 'NONE',  ( -3.491481338843133355E-15, 1.224646799147353454E-16, -1.000000000000000000 ) ) ;
#316 = APPROVAL_STATUS ( 'not_yet_approved' ) ;
#317 = LINE ( 'NONE', #297, #92 ) ;
#318 = CLOSED_SHELL ( 'NONE', ( #119, #24, #170, #18, #186, #150 ) ) ;
#319 = CIRCLE ( 'NONE', #301, 3.950000000000005507 ) ;
#320 = CARTESIAN_POINT ( 'NONE',  ( 1.012529588264508799E-13, 4.749999999999995559, 29.00000000000000355 ) ) ;
#321 = VERTEX_POINT ( 'NONE', #122 ) ;
#322 = DIRECTION ( 'NONE',  ( 0.0000000000000000000, 1.000000000000000000, 0.0000000000000000000 ) ) ;
#323 = ORIENTED_EDGE ( 'NONE', *, *, #282, .F. ) ;
#324 = VERTEX_POINT ( 'NONE', #45 ) ;
#325 = AXIS2_PLACEMENT_3D ( 'NONE', #62, #34, #157 ) ;
#326 = CC_DESIGN_APPROVAL ( #272, ( #2 ) ) ;
#327 = DIRECTION ( 'NONE',  ( 0.0000000000000000000, 0.0000000000000000000, 1.000000000000000000 ) ) ;
#328 = FACE_OUTER_BOUND ( 'NONE', #93, .T. ) ;
#329 = EDGE_CURVE ( 'NONE', #138, #321, #319, .T. ) ;
#330 = DIRECTION ( 'NONE',  ( -3.491481338843133355E-15, 1.224646799147353454E-16, -1.000000000000000000 ) ) ;
#331 = APPROVAL_PERSON_ORGANIZATION ( #55, #293, #51 ) ;
#332 = CARTESIAN_POINT ( 'NONE',  ( 2.031019936801056958E-30, 4.750000000000002665, 5.817072295949932356E-16 ) ) ;
#333 = AXIS2_PLACEMENT_3D ( 'NONE', #116, #219, #222 ) ;
#334 = EDGE_LOOP ( 'NONE', ( #273, #323 ) ) ;
#335 = PERSON_AND_ORGANIZATION ( #153, #88 ) ;
#336 = ORIENTED_EDGE ( 'NONE', *, *, #82, .T. ) ;
#337 = CALENDAR_DATE ( 2021, 3, 9 ) ;
ENDSEC;
END-ISO-10303-21;
