ISO-10303-21;
HEADER;
FILE_DESCRIPTION (( 'STEP AP203' ),
    '1' );
FILE_NAME ('39659.step',
    '2021-12-06T12:59:38',
    ( '' ),
    ( '' ),
    'SwSTEP 2.0',
    'SolidWorks 2019',
    '' );
FILE_SCHEMA (( 'CONFIG_CONTROL_DESIGN' ));
ENDSEC;

DATA;
#1 = APPROVAL_ROLE ( '' ) ;
#2 = APPROVAL_STATUS ( 'not_yet_approved' ) ;
#3 = EDGE_CURVE ( 'NONE', #135, #135, #141, .T. ) ;
#4 = APPLICATION_PROTOCOL_DEFINITION ( 'international standard', 'config_control_design', 1994, #110 ) ;
#5 = ORGANIZATION ( 'UNSPECIFIED', 'UNSPECIFIED', '' ) ;
#6 = PERSON_AND_ORGANIZATION_ROLE ( 'design_supplier' ) ;
#7 = AXIS2_PLACEMENT_3D ( 'NONE', #106, #147, #77 ) ;
#8 = EDGE_CURVE ( 'NONE', #25, #25, #43, .T. ) ;
#9 = LOCAL_TIME ( 13, 59, 38.00000000000000000, #145 ) ;
#10 = PERSON_AND_ORGANIZATION ( #69, #5 ) ;
#11 = ORIENTED_EDGE ( 'NONE', *, *, #121, .F. ) ;
#12 = CARTESIAN_POINT ( 'NONE',  ( 0.0000000000000000000, 0.0000000000000000000, 0.0000000000000000000 ) ) ;
#13 = CC_DESIGN_APPROVAL ( #96, ( #129 ) ) ;
#14 = PRODUCT ( '39659', '39659', '', ( #123 ) ) ;
#15 = ADVANCED_BREP_SHAPE_REPRESENTATION ( '39659', ( #119, #38 ), #111 ) ;
#16 = COORDINATED_UNIVERSAL_TIME_OFFSET ( 1, 0, .AHEAD. ) ;
#17 = PRODUCT_RELATED_PRODUCT_CATEGORY ( 'detail', '', ( #14 ) ) ;
#18 = APPROVAL_PERSON_ORGANIZATION ( #44, #85, #109 ) ;
#19 = CLOSED_SHELL ( 'NONE', ( #31, #105, #70, #146 ) ) ;
#20 = CARTESIAN_POINT ( 'NONE',  ( 3.530476992466809246E-30, 2.500000000000000000, 1.011168799096774616E-15 ) ) ;
#21 = PLANE ( 'NONE',  #138 ) ;
#22 = FACE_BOUND ( 'NONE', #128, .T. ) ;
#23 = ORIENTED_EDGE ( 'NONE', *, *, #3, .T. ) ;
#24 = CYLINDRICAL_SURFACE ( 'NONE', #86, 2.500000000000000000 ) ;
#25 = VERTEX_POINT ( 'NONE', #79 ) ;
#26 = CARTESIAN_POINT ( 'NONE',  ( 2.444036937190194138E-15, 10.00000000000000000, 0.7000000000000000666 ) ) ;
#27 = LOCAL_TIME ( 13, 59, 38.00000000000000000, #80 ) ;
#28 = PERSON_AND_ORGANIZATION_ROLE ( 'design_owner' ) ;
#29 = VERTEX_POINT ( 'NONE', #124 ) ;
#30 = DATE_AND_TIME ( #68, #120 ) ;
#31 = ADVANCED_FACE ( 'NONE', ( #47, #22 ), #21, .T. ) ;
#32 = PRODUCT_DEFINITION_FORMATION_WITH_SPECIFIED_SOURCE ( 'ANY', '', #14, .NOT_KNOWN. ) ;
#33 = DIRECTION ( 'NONE',  ( -9.244463733058732095E-31, 1.000000000000000000, -2.602085213965210642E-16 ) ) ;
#34 = PLANE ( 'NONE',  #55 ) ;
#35 = CC_DESIGN_PERSON_AND_ORGANIZATION_ASSIGNMENT ( #125, #84, ( #32 ) ) ;
#36 = FACE_OUTER_BOUND ( 'NONE', #71, .T. ) ;
#37 = DIRECTION ( 'NONE',  ( -3.491481338843133355E-15, -2.696450130924732080E-16, -1.000000000000000000 ) ) ;
#38 = AXIS2_PLACEMENT_3D ( 'NONE', #66, #103, #93 ) ;
#39 = CALENDAR_DATE ( 2021, 6, 12 ) ;
#40 = DATE_AND_TIME ( #143, #27 ) ;
#41 = APPROVAL_DATE_TIME ( #158, #96 ) ;
#42 = APPLICATION_CONTEXT ( 'configuration controlled 3d designs of mechanical parts and assemblies' ) ;
#43 = CIRCLE ( 'NONE', #102, 2.500000000000000000 ) ;
#44 = PERSON_AND_ORGANIZATION ( #69, #5 ) ;
#45 = PERSON_AND_ORGANIZATION ( #69, #5 ) ;
#46 = UNCERTAINTY_MEASURE_WITH_UNIT (LENGTH_MEASURE( 1.000000000000000082E-05 ), #136, 'distance_accuracy_value', 'NONE');
#47 = FACE_OUTER_BOUND ( 'NONE', #89, .T. ) ;
#48 = APPROVAL ( #53, 'UNSPECIFIED' ) ;
#49 = FACE_BOUND ( 'NONE', #140, .T. ) ;
#50 = DIRECTION ( 'NONE',  ( -9.414605313244825239E-31, 1.000000000000000000, -2.696450130924732080E-16 ) ) ;
#51 = AXIS2_PLACEMENT_3D ( 'NONE', #115, #151, #166 ) ;
#52 = CALENDAR_DATE ( 2021, 6, 12 ) ;
#53 = APPROVAL_STATUS ( 'not_yet_approved' ) ;
#54 = PERSON_AND_ORGANIZATION_ROLE ( 'creator' ) ;
#55 = AXIS2_PLACEMENT_3D ( 'NONE', #99, #72, #152 ) ;
#56 = DATE_AND_TIME ( #39, #9 ) ;
#57 = CC_DESIGN_PERSON_AND_ORGANIZATION_ASSIGNMENT ( #92, #54, ( #129 ) ) ;
#58 = SECURITY_CLASSIFICATION_LEVEL ( 'unclassified' ) ;
#59 = CC_DESIGN_SECURITY_CLASSIFICATION ( #160, ( #32 ) ) ;
#60 = AXIS2_PLACEMENT_3D ( 'NONE', #82, #101, #144 ) ;
#61 = EDGE_LOOP ( 'NONE', ( #100 ) ) ;
#62 =( NAMED_UNIT ( * ) PLANE_ANGLE_UNIT ( ) SI_UNIT ( $, .RADIAN. ) );
#63 = APPROVAL_ROLE ( '' ) ;
#64 = CC_DESIGN_PERSON_AND_ORGANIZATION_ASSIGNMENT ( #162, #95, ( #160 ) ) ;
#65 = LOCAL_TIME ( 13, 59, 38.00000000000000000, #154 ) ;
#66 = CARTESIAN_POINT ( 'NONE',  ( 0.0000000000000000000, 0.0000000000000000000, 0.0000000000000000000 ) ) ;
#67 = CARTESIAN_POINT ( 'NONE',  ( 1.368455531567204171E-45, 10.00000000000000000, 0.0000000000000000000 ) ) ;
#68 = CALENDAR_DATE ( 2021, 6, 12 ) ;
#69 = PERSON ( 'UNSPECIFIED', 'UNSPECIFIED', 'UNSPECIFIED', ('UNSPECIFIED'), ('UNSPECIFIED'), ('UNSPECIFIED') ) ;
#70 = ADVANCED_FACE ( 'NONE', ( #49, #74 ), #34, .T. ) ;
#71 = EDGE_LOOP ( 'NONE', ( #150 ) ) ;
#72 = DIRECTION ( 'NONE',  ( 3.491481338843133355E-15, 2.696450130924732080E-16, 1.000000000000000000 ) ) ;
#73 = CARTESIAN_POINT ( 'NONE',  ( 0.0000000000000000000, 0.0000000000000000000, 0.0000000000000000000 ) ) ;
#74 = FACE_OUTER_BOUND ( 'NONE', #112, .T. ) ;
#75 = DATE_AND_TIME ( #113, #65 ) ;
#76 = EDGE_LOOP ( 'NONE', ( #23 ) ) ;
#77 = DIRECTION ( 'NONE',  ( -9.414605313244825239E-31, 1.000000000000000000, -2.696450130924732080E-16 ) ) ;
#78 = FACE_OUTER_BOUND ( 'NONE', #61, .T. ) ;
#79 = CARTESIAN_POINT ( 'NONE',  ( 2.444036937190192165E-15, 2.500000000000000000, 0.6999999999999996225 ) ) ;
#80 = COORDINATED_UNIVERSAL_TIME_OFFSET ( 1, 0, .AHEAD. ) ;
#81 = VERTEX_POINT ( 'NONE', #67 ) ;
#82 = CARTESIAN_POINT ( 'NONE',  ( 2.353651328311206748E-30, 1.817710827141001268E-31, 6.741125327311830445E-16 ) ) ;
#83 = LOCAL_TIME ( 13, 59, 38.00000000000000000, #132 ) ;
#84 = PERSON_AND_ORGANIZATION_ROLE ( 'creator' ) ;
#85 = APPROVAL ( #94, 'UNSPECIFIED' ) ;
#86 = AXIS2_PLACEMENT_3D ( 'NONE', #12, #104, #159 ) ;
#87 = DIRECTION ( 'NONE',  ( -9.414605313244825239E-31, 1.000000000000000000, -2.696450130924732080E-16 ) ) ;
#88 = FACE_OUTER_BOUND ( 'NONE', #76, .T. ) ;
#89 = EDGE_LOOP ( 'NONE', ( #114 ) ) ;
#90 = DIRECTION ( 'NONE',  ( -3.491481338843133355E-15, -2.696450130924732080E-16, -1.000000000000000000 ) ) ;
#91 = PERSON_AND_ORGANIZATION ( #69, #5 ) ;
#92 = PERSON_AND_ORGANIZATION ( #69, #5 ) ;
#93 = DIRECTION ( 'NONE',  ( 1.000000000000000000, 0.0000000000000000000, 0.0000000000000000000 ) ) ;
#94 = APPROVAL_STATUS ( 'not_yet_approved' ) ;
#95 = PERSON_AND_ORGANIZATION_ROLE ( 'classification_officer' ) ;
#96 = APPROVAL ( #2, 'UNSPECIFIED' ) ;
#97 = CC_DESIGN_DATE_AND_TIME_ASSIGNMENT ( #56, #161, ( #129 ) ) ;
#98 = DIRECTION ( 'NONE',  ( -3.491481338843133355E-15, -2.696450130924732080E-16, -1.000000000000000000 ) ) ;
#99 = CARTESIAN_POINT ( 'NONE',  ( 2.444036937190196110E-15, 2.500000000000000000, 0.7000000000000008438 ) ) ;
#100 = ORIENTED_EDGE ( 'NONE', *, *, #8, .F. ) ;
#101 = DIRECTION ( 'NONE',  ( -3.491481338843133355E-15, -2.696450130924732080E-16, -1.000000000000000000 ) ) ;
#102 = AXIS2_PLACEMENT_3D ( 'NONE', #117, #37, #33 ) ;
#103 = DIRECTION ( 'NONE',  ( 0.0000000000000000000, 0.0000000000000000000, 1.000000000000000000 ) ) ;
#104 = DIRECTION ( 'NONE',  ( -3.491481338843133355E-15, -2.696450130924732080E-16, -1.000000000000000000 ) ) ;
#105 = ADVANCED_FACE ( 'NONE', ( #88, #36 ), #142, .T. ) ;
#106 = CARTESIAN_POINT ( 'NONE',  ( 9.414605313244826990E-30, 7.270843308564005072E-31, 2.696450130924732178E-15 ) ) ;
#107 = APPROVAL_PERSON_ORGANIZATION ( #10, #48, #63 ) ;
#108 = APPLICATION_PROTOCOL_DEFINITION ( 'international standard', 'config_control_design', 1994, #42 ) ;
#109 = APPROVAL_ROLE ( '' ) ;
#110 = APPLICATION_CONTEXT ( 'configuration controlled 3d designs of mechanical parts and assemblies' ) ;
#111 =( GEOMETRIC_REPRESENTATION_CONTEXT ( 3 ) GLOBAL_UNCERTAINTY_ASSIGNED_CONTEXT ( ( #46 ) ) GLOBAL_UNIT_ASSIGNED_CONTEXT ( ( #136, #62, #167 ) ) REPRESENTATION_CONTEXT ( 'NONE', 'WORKASPACE' ) );
#112 = EDGE_LOOP ( 'NONE', ( #163 ) ) ;
#113 = CALENDAR_DATE ( 2021, 6, 12 ) ;
#114 = ORIENTED_EDGE ( 'NONE', *, *, #118, .T. ) ;
#115 = CARTESIAN_POINT ( 'NONE',  ( 2.444036937190203209E-15, 1.887515091647320196E-16, 0.7000000000000028422 ) ) ;
#116 = CIRCLE ( 'NONE', #60, 2.500000000000000000 ) ;
#117 = CARTESIAN_POINT ( 'NONE',  ( 2.444036937190194532E-15, 1.887515091647313294E-16, 0.7000000000000002887 ) ) ;
#118 = EDGE_CURVE ( 'NONE', #81, #81, #139, .T. ) ;
#119 = MANIFOLD_SOLID_BREP ( 'Corps-Déplacer/Copier1', #19 ) ;
#120 = LOCAL_TIME ( 13, 59, 38.00000000000000000, #16 ) ;
#121 = EDGE_CURVE ( 'NONE', #29, #29, #116, .T. ) ;
#122 = APPROVAL_DATE_TIME ( #40, #48 ) ;
#123 = MECHANICAL_CONTEXT ( 'NONE', #42, 'mechanical' ) ;
#124 = CARTESIAN_POINT ( 'NONE',  ( 3.421138828918010427E-46, 2.500000000000000000, 0.0000000000000000000 ) ) ;
#125 = PERSON_AND_ORGANIZATION ( #69, #5 ) ;
#126 = CC_DESIGN_PERSON_AND_ORGANIZATION_ASSIGNMENT ( #45, #6, ( #32 ) ) ;
#127 = CC_DESIGN_DATE_AND_TIME_ASSIGNMENT ( #75, #168, ( #160 ) ) ;
#128 = EDGE_LOOP ( 'NONE', ( #11 ) ) ;
#129 = PRODUCT_DEFINITION ( 'UNKNOWN', '', #32, #137 ) ;
#130 = ORIENTED_EDGE ( 'NONE', *, *, #121, .T. ) ;
#131 = FACE_OUTER_BOUND ( 'NONE', #164, .T. ) ;
#132 = COORDINATED_UNIVERSAL_TIME_OFFSET ( 1, 0, .AHEAD. ) ;
#133 = PRODUCT_DEFINITION_SHAPE ( 'NONE', 'NONE',  #129 ) ;
#134 = APPROVAL_PERSON_ORGANIZATION ( #91, #96, #1 ) ;
#135 = VERTEX_POINT ( 'NONE', #26 ) ;
#136 =( LENGTH_UNIT ( ) NAMED_UNIT ( * ) SI_UNIT ( .MILLI., .METRE. ) );
#137 = DESIGN_CONTEXT ( 'detailed design', #110, 'design' ) ;
#138 = AXIS2_PLACEMENT_3D ( 'NONE', #20, #98, #87 ) ;
#139 = CIRCLE ( 'NONE', #7, 10.00000000000000000 ) ;
#140 = EDGE_LOOP ( 'NONE', ( #155 ) ) ;
#141 = CIRCLE ( 'NONE', #51, 10.00000000000000000 ) ;
#142 = CYLINDRICAL_SURFACE ( 'NONE', #149, 10.00000000000000000 ) ;
#143 = CALENDAR_DATE ( 2021, 6, 12 ) ;
#144 = DIRECTION ( 'NONE',  ( -9.414605313244825239E-31, 1.000000000000000000, -2.696450130924732080E-16 ) ) ;
#145 = COORDINATED_UNIVERSAL_TIME_OFFSET ( 1, 0, .AHEAD. ) ;
#146 = ADVANCED_FACE ( 'NONE', ( #131, #78 ), #24, .F. ) ;
#147 = DIRECTION ( 'NONE',  ( -3.491481338843133355E-15, -2.696450130924732080E-16, -1.000000000000000000 ) ) ;
#148 = APPROVAL_DATE_TIME ( #30, #85 ) ;
#149 = AXIS2_PLACEMENT_3D ( 'NONE', #73, #90, #50 ) ;
#150 = ORIENTED_EDGE ( 'NONE', *, *, #118, .F. ) ;
#151 = DIRECTION ( 'NONE',  ( -3.491481338843133355E-15, -2.696450130924732080E-16, -1.000000000000000000 ) ) ;
#152 = DIRECTION ( 'NONE',  ( 9.414605313244825239E-31, -1.000000000000000000, 2.696450130924732080E-16 ) ) ;
#153 = CC_DESIGN_PERSON_AND_ORGANIZATION_ASSIGNMENT ( #157, #28, ( #14 ) ) ;
#154 = COORDINATED_UNIVERSAL_TIME_OFFSET ( 1, 0, .AHEAD. ) ;
#155 = ORIENTED_EDGE ( 'NONE', *, *, #8, .T. ) ;
#156 = SHAPE_DEFINITION_REPRESENTATION ( #133, #15 ) ;
#157 = PERSON_AND_ORGANIZATION ( #69, #5 ) ;
#158 = DATE_AND_TIME ( #52, #83 ) ;
#159 = DIRECTION ( 'NONE',  ( -9.414605313244825239E-31, 1.000000000000000000, -2.696450130924732080E-16 ) ) ;
#160 = SECURITY_CLASSIFICATION ( '', '', #58 ) ;
#161 = DATE_TIME_ROLE ( 'creation_date' ) ;
#162 = PERSON_AND_ORGANIZATION ( #69, #5 ) ;
#163 = ORIENTED_EDGE ( 'NONE', *, *, #3, .F. ) ;
#164 = EDGE_LOOP ( 'NONE', ( #130 ) ) ;
#165 = CC_DESIGN_APPROVAL ( #48, ( #160 ) ) ;
#166 = DIRECTION ( 'NONE',  ( -9.244463733058732095E-31, 1.000000000000000000, -2.710505431213761085E-16 ) ) ;
#167 =( NAMED_UNIT ( * ) SI_UNIT ( $, .STERADIAN. ) SOLID_ANGLE_UNIT ( ) );
#168 = DATE_TIME_ROLE ( 'classification_date' ) ;
#169 = CC_DESIGN_APPROVAL ( #85, ( #32 ) ) ;
ENDSEC;
END-ISO-10303-21;
