ISO-10303-21;
HEADER;
FILE_DESCRIPTION (( 'STEP AP203' ),
    '1' );
FILE_NAME ('39655.step',
    '2021-09-03T07:22:04',
    ( '' ),
    ( '' ),
    'SwSTEP 2.0',
    'SolidWorks 2019',
    '' );
FILE_SCHEMA (( 'CONFIG_CONTROL_DESIGN' ));
ENDSEC;

DATA;
#1 = ADVANCED_FACE ( 'NONE', ( #122 ), #288, .T. ) ;
#2 = CARTESIAN_POINT ( 'NONE',  ( 3.491481338843133355E-14, 1.099999999999995426, 10.00000000000000000 ) ) ;
#3 = LOCAL_TIME ( 9, 22, 4.000000000000000000, #41 ) ;
#4 = DIRECTION ( 'NONE',  ( -3.491481338843133355E-15, 1.224646799147353207E-16, -1.000000000000000000 ) ) ;
#5 = ORIENTED_EDGE ( 'NONE', *, *, #161, .T. ) ;
#6 = SECURITY_CLASSIFICATION_LEVEL ( 'unclassified' ) ;
#7 = VECTOR ( 'NONE', #280, 1000.000000000000000 ) ;
#8 = APPLICATION_CONTEXT ( 'configuration controlled 3d designs of mechanical parts and assemblies' ) ;
#9 = CC_DESIGN_DATE_AND_TIME_ASSIGNMENT ( #140, #108, ( #15 ) ) ;
#10 = CLOSED_SHELL ( 'NONE', ( #1, #313, #233, #230, #323, #189 ) ) ;
#11 = DIRECTION ( 'NONE',  ( -3.491481338843133355E-15, 1.224646799147353207E-16, -1.000000000000000000 ) ) ;
#12 = DIRECTION ( 'NONE',  ( -3.501690807976807030E-31, -1.000000000000000000, -9.856383386231899503E-17 ) ) ;
#13 = DESIGN_CONTEXT ( 'detailed design', #146, 'design' ) ;
#14 = CC_DESIGN_APPROVAL ( #196, ( #157 ) ) ;
#15 = SECURITY_CLASSIFICATION ( '', '', #6 ) ;
#16 = PLANE ( 'NONE',  #319 ) ;
#17 = EDGE_CURVE ( 'NONE', #258, #254, #251, .T. ) ;
#18 = PERSON ( 'UNSPECIFIED', 'UNSPECIFIED', 'UNSPECIFIED', ('UNSPECIFIED'), ('UNSPECIFIED'), ('UNSPECIFIED') ) ;
#19 = AXIS2_PLACEMENT_3D ( 'NONE', #104, #335, #62 ) ;
#20 = DIRECTION ( 'NONE',  ( -2.468850131082272443E-15, 0.7071067811865454633, -0.7071067811865495711 ) ) ;
#21 = APPROVAL_DATE_TIME ( #164, #196 ) ;
#22 = DATE_TIME_ROLE ( 'creation_date' ) ;
#23 = ADVANCED_FACE ( 'NONE', ( #325 ), #43, .T. ) ;
#24 = ORIENTED_EDGE ( 'NONE', *, *, #132, .F. ) ;
#25 = LINE ( 'NONE', #160, #232 ) ;
#26 = CONICAL_SURFACE ( 'NONE', #302, 0.8000000000000004885, 0.7853981633974452814 ) ;
#27 = DIRECTION ( 'NONE',  ( 4.275831445896958607E-31, 1.000000000000000000, 1.224646799147353207E-16 ) ) ;
#28 = ORIENTED_EDGE ( 'NONE', *, *, #215, .F. ) ;
#29 = EDGE_LOOP ( 'NONE', ( #259, #333, #334, #42 ) ) ;
#30 = CARTESIAN_POINT ( 'NONE',  ( 3.491481338843133355E-14, 8.248678804640174421E-33, 10.00000000000000000 ) ) ;
#31 = PERSON_AND_ORGANIZATION ( #18, #214 ) ;
#32 = AXIS2_PLACEMENT_3D ( 'NONE', #71, #266, #68 ) ;
#33 = ADVANCED_FACE ( 'NONE', ( #295 ), #193, .T. ) ;
#34 = DIRECTION ( 'NONE',  ( 0.0000000000000000000, 1.000000000000000000, 0.0000000000000000000 ) ) ;
#35 = PERSON_AND_ORGANIZATION ( #18, #214 ) ;
#36 = VERTEX_POINT ( 'NONE', #272 ) ;
#37 = COORDINATED_UNIVERSAL_TIME_OFFSET ( 1, 0, .AHEAD. ) ;
#38 = ADVANCED_FACE ( 'NONE', ( #153 ), #248, .T. ) ;
#39 = LINE ( 'NONE', #139, #96 ) ;
#40 = PLANE ( 'NONE',  #221 ) ;
#41 = COORDINATED_UNIVERSAL_TIME_OFFSET ( 1, 0, .AHEAD. ) ;
#42 = ORIENTED_EDGE ( 'NONE', *, *, #55, .F. ) ;
#43 = CONICAL_SURFACE ( 'NONE', #243, 1.099999999999995426, 1.029744258676649649 ) ;
#44 = LOCAL_TIME ( 9, 22, 4.000000000000000000, #303 ) ;
#45 = CARTESIAN_POINT ( 'NONE',  ( 3.491481338843133355E-14, 1.099999999999995426, 10.00000000000000000 ) ) ;
#46 = DIRECTION ( 'NONE',  ( 3.491481338843133355E-15, -1.224646799147353207E-16, 1.000000000000000000 ) ) ;
#47 = ORIENTED_EDGE ( 'NONE', *, *, #239, .T. ) ;
#48 = CARTESIAN_POINT ( 'NONE',  ( 0.0000000000000000000, 0.0000000000000000000, 0.0000000000000000000 ) ) ;
#49 = DIRECTION ( 'NONE',  ( -3.491481338843133355E-15, 1.224646799147353207E-16, -1.000000000000000000 ) ) ;
#50 = CARTESIAN_POINT ( 'NONE',  ( 1.396592535537253342E-13, -4.898587196589413026E-15, 40.00000000000000000 ) ) ;
#51 = VECTOR ( 'NONE', #242, 1000.000000000000000 ) ;
#52 = EDGE_CURVE ( 'NONE', #36, #312, #25, .T. ) ;
#53 = CARTESIAN_POINT ( 'NONE',  ( 0.0000000000000000000, 0.0000000000000000000, 0.0000000000000000000 ) ) ;
#54 = ORIENTED_EDGE ( 'NONE', *, *, #260, .F. ) ;
#55 = EDGE_CURVE ( 'NONE', #267, #254, #79, .T. ) ;
#56 = LINE ( 'NONE', #125, #159 ) ;
#57 = CIRCLE ( 'NONE', #209, 0.8000000000000004885 ) ;
#58 = LINE ( 'NONE', #223, #7 ) ;
#59 = APPROVAL_STATUS ( 'not_yet_approved' ) ;
#60 = ORIENTED_EDGE ( 'NONE', *, *, #91, .T. ) ;
#61 = ORIENTED_EDGE ( 'NONE', *, *, #285, .F. ) ;
#62 = DIRECTION ( 'NONE',  ( 4.275831445896958607E-31, 1.000000000000000000, 1.224646799147353207E-16 ) ) ;
#63 = ORIENTED_EDGE ( 'NONE', *, *, #327, .T. ) ;
#64 = EDGE_LOOP ( 'NONE', ( #222, #70, #276 ) ) ;
#65 = CARTESIAN_POINT ( 'NONE',  ( 3.491481338843133355E-14, 8.248678804640174421E-33, 10.00000000000000000 ) ) ;
#66 = AXIS2_PLACEMENT_3D ( 'NONE', #152, #11, #220 ) ;
#67 = APPLICATION_PROTOCOL_DEFINITION ( 'international standard', 'config_control_design', 1994, #146 ) ;
#68 = DIRECTION ( 'NONE',  ( 1.000000000000000000, 0.0000000000000000000, 0.0000000000000000000 ) ) ;
#69 = ORIENTED_EDGE ( 'NONE', *, *, #55, .T. ) ;
#70 = ORIENTED_EDGE ( 'NONE', *, *, #298, .T. ) ;
#71 = CARTESIAN_POINT ( 'NONE',  ( 0.0000000000000000000, 0.0000000000000000000, 0.0000000000000000000 ) ) ;
#72 = APPROVAL_PERSON_ORGANIZATION ( #35, #282, #94 ) ;
#73 = LINE ( 'NONE', #213, #204 ) ;
#74 = DIRECTION ( 'NONE',  ( 0.0000000000000000000, 1.000000000000000000, 0.0000000000000000000 ) ) ;
#75 = CARTESIAN_POINT ( 'NONE',  ( 2.307683002438522405E-15, -1.099999999999995426, 0.6609466809303209400 ) ) ;
#76 = DIRECTION ( 'NONE',  ( -3.491481338843133355E-15, 1.224646799147353207E-16, -1.000000000000000000 ) ) ;
#77 = LINE ( 'NONE', #195, #51 ) ;
#78 = CC_DESIGN_PERSON_AND_ORGANIZATION_ASSIGNMENT ( #136, #201, ( #15 ) ) ;
#79 = CIRCLE ( 'NONE', #297, 1.100000000000000311 ) ;
#80 = DIRECTION ( 'NONE',  ( 3.491481338843133355E-15, -1.224646799147353207E-16, 1.000000000000000000 ) ) ;
#81 = PERSON_AND_ORGANIZATION_ROLE ( 'creator' ) ;
#82 = APPROVAL_PERSON_ORGANIZATION ( #291, #196, #317 ) ;
#83 = CYLINDRICAL_SURFACE ( 'NONE', #19, 1.099999999999996092 ) ;
#84 = EDGE_LOOP ( 'NONE', ( #156, #306, #179, #54 ) ) ;
#85 = CC_DESIGN_PERSON_AND_ORGANIZATION_ASSIGNMENT ( #289, #322, ( #256 ) ) ;
#86 = CARTESIAN_POINT ( 'NONE',  ( 1.396592535537253342E-13, 0.7999999999999956035, 40.00000000000000000 ) ) ;
#87 = CIRCLE ( 'NONE', #270, 1.099999999999995426 ) ;
#88 = ORIENTED_EDGE ( 'NONE', *, *, #91, .F. ) ;
#89 = ORIENTED_EDGE ( 'NONE', *, *, #106, .F. ) ;
#90 = DIRECTION ( 'NONE',  ( -3.491481338843133355E-15, 1.224646799147353207E-16, -1.000000000000000000 ) ) ;
#91 = EDGE_CURVE ( 'NONE', #308, #290, #58, .T. ) ;
#92 = APPROVAL_DATE_TIME ( #316, #282 ) ;
#93 = ORIENTED_EDGE ( 'NONE', *, *, #168, .F. ) ;
#94 = APPROVAL_ROLE ( '' ) ;
#95 = ORIENTED_EDGE ( 'NONE', *, *, #121, .F. ) ;
#96 = VECTOR ( 'NONE', #237, 1000.000000000000000 ) ;
#97 = CARTESIAN_POINT ( 'NONE',  ( 1.386118091520723879E-13, -4.861847792614992166E-15, 39.69999999999999574 ) ) ;
#98 = APPROVAL ( #59, 'UNSPECIFIED' ) ;
#99 = ORIENTED_EDGE ( 'NONE', *, *, #304, .F. ) ;
#100 = EDGE_LOOP ( 'NONE', ( #141, #28 ) ) ;
#101 =( LENGTH_UNIT ( ) NAMED_UNIT ( * ) SI_UNIT ( .MILLI., .METRE. ) );
#102 = VERTEX_POINT ( 'NONE', #2 ) ;
#103 = VECTOR ( 'NONE', #20, 1000.000000000000000 ) ;
#104 = CARTESIAN_POINT ( 'NONE',  ( 0.0000000000000000000, 0.0000000000000000000, 0.0000000000000000000 ) ) ;
#105 = ADVANCED_FACE ( 'NONE', ( #253 ), #83, .T. ) ;
#106 = EDGE_CURVE ( 'NONE', #290, #312, #118, .T. ) ;
#107 = CC_DESIGN_APPROVAL ( #98, ( #256 ) ) ;
#108 = DATE_TIME_ROLE ( 'classification_date' ) ;
#109 = ADVANCED_FACE ( 'NONE', ( #321 ), #40, .T. ) ;
#110 = FACE_OUTER_BOUND ( 'NONE', #279, .T. ) ;
#111 = PERSON_AND_ORGANIZATION ( #18, #214 ) ;
#112 = ORIENTED_EDGE ( 'NONE', *, *, #17, .F. ) ;
#113 = APPROVAL_DATE_TIME ( #208, #98 ) ;
#114 = DIRECTION ( 'NONE',  ( 0.0000000000000000000, 1.000000000000000000, 0.0000000000000000000 ) ) ;
#115 = PERSON_AND_ORGANIZATION_ROLE ( 'design_owner' ) ;
#116 = CARTESIAN_POINT ( 'NONE',  ( 2.307683002438522799E-15, -8.094262372083846068E-17, 0.6609466809303210511 ) ) ;
#117 = DIRECTION ( 'NONE',  ( -3.491481338843133355E-15, 1.224646799147353207E-16, -1.000000000000000000 ) ) ;
#118 = CIRCLE ( 'NONE', #149, 1.099999999999995426 ) ;
#119 = ORIENTED_EDGE ( 'NONE', *, *, #168, .T. ) ;
#120 = DIRECTION ( 'NONE',  ( -3.491481338843133355E-15, 1.224646799147353207E-16, -1.000000000000000000 ) ) ;
#121 = EDGE_CURVE ( 'NONE', #267, #183, #56, .T. ) ;
#122 = FACE_OUTER_BOUND ( 'NONE', #284, .T. ) ;
#123 = FACE_OUTER_BOUND ( 'NONE', #29, .T. ) ;
#124 = DIRECTION ( 'NONE',  ( 4.275831445896958607E-31, 1.000000000000000000, 1.224646799147353207E-16 ) ) ;
#125 = CARTESIAN_POINT ( 'NONE',  ( 1.347111479062082094E-16, -1.099999999999998535, -1.347111479062091461E-16 ) ) ;
#126 = CARTESIAN_POINT ( 'NONE',  ( 0.0000000000000000000, 0.0000000000000000000, 0.0000000000000000000 ) ) ;
#127 = DIRECTION ( 'NONE',  ( -3.491481338843133355E-15, 1.224646799147353207E-16, -1.000000000000000000 ) ) ;
#128 = APPROVAL_ROLE ( '' ) ;
#129 = CC_DESIGN_PERSON_AND_ORGANIZATION_ASSIGNMENT ( #31, #137, ( #256 ) ) ;
#130 = DIRECTION ( 'NONE',  ( 0.0000000000000000000, 1.000000000000000000, 0.0000000000000000000 ) ) ;
#131 = EDGE_LOOP ( 'NONE', ( #310, #199, #305 ) ) ;
#132 = EDGE_CURVE ( 'NONE', #308, #36, #134, .T. ) ;
#133 = CARTESIAN_POINT ( 'NONE',  ( 1.396592535537253342E-13, -4.898587196589413026E-15, 40.00000000000000000 ) ) ;
#134 = CIRCLE ( 'NONE', #66, 1.099999999999996758 ) ;
#135 = LOCAL_TIME ( 9, 22, 4.000000000000000000, #162 ) ;
#136 = PERSON_AND_ORGANIZATION ( #18, #214 ) ;
#137 = PERSON_AND_ORGANIZATION_ROLE ( 'design_supplier' ) ;
#138 = APPLICATION_PROTOCOL_DEFINITION ( 'international standard', 'config_control_design', 1994, #8 ) ;
#139 = CARTESIAN_POINT ( 'NONE',  ( 4.703414590486648512E-31, 1.099999999999998535, 1.347111479062086778E-16 ) ) ;
#140 = DATE_AND_TIME ( #318, #3 ) ;
#141 = ORIENTED_EDGE ( 'NONE', *, *, #239, .F. ) ;
#142 = EDGE_CURVE ( 'NONE', #206, #312, #332, .T. ) ;
#143 = CALENDAR_DATE ( 2021, 3, 9 ) ;
#144 = CIRCLE ( 'NONE', #227, 1.099999999999996758 ) ;
#145 = MECHANICAL_CONTEXT ( 'NONE', #8, 'mechanical' ) ;
#146 = APPLICATION_CONTEXT ( 'configuration controlled 3d designs of mechanical parts and assemblies' ) ;
#147 = CARTESIAN_POINT ( 'NONE',  ( 1.392518727988178481E-13, -0.8000000000000053735, 40.00000000000000000 ) ) ;
#148 = FACE_OUTER_BOUND ( 'NONE', #100, .T. ) ;
#149 = AXIS2_PLACEMENT_3D ( 'NONE', #155, #301, #229 ) ;
#150 = CC_DESIGN_APPROVAL ( #282, ( #15 ) ) ;
#151 = DIRECTION ( 'NONE',  ( 0.0000000000000000000, 1.000000000000000000, 0.0000000000000000000 ) ) ;
#152 = CARTESIAN_POINT ( 'NONE',  ( 3.491481338843133355E-14, -1.224646799147353256E-15, 10.00000000000000000 ) ) ;
#153 = FACE_OUTER_BOUND ( 'NONE', #247, .T. ) ;
#154 = AXIS2_PLACEMENT_3D ( 'NONE', #241, #212, #151 ) ;
#155 = CARTESIAN_POINT ( 'NONE',  ( 2.307683002438522799E-15, -8.094262372083846068E-17, 0.6609466809303210511 ) ) ;
#156 = ORIENTED_EDGE ( 'NONE', *, *, #187, .T. ) ;
#157 = PRODUCT_DEFINITION ( 'UNKNOWN', '', #256, #13 ) ;
#158 = CIRCLE ( 'NONE', #238, 1.100000000000000311 ) ;
#159 = VECTOR ( 'NONE', #49, 1000.000000000000000 ) ;
#160 = CARTESIAN_POINT ( 'NONE',  ( 1.347111479062079136E-16, -1.099999999999996092, -1.347111479062088503E-16 ) ) ;
#161 = EDGE_CURVE ( 'NONE', #175, #267, #77, .T. ) ;
#162 = COORDINATED_UNIVERSAL_TIME_OFFSET ( 1, 0, .AHEAD. ) ;
#163 = APPROVAL_STATUS ( 'not_yet_approved' ) ;
#164 = DATE_AND_TIME ( #236, #261 ) ;
#165 = DIRECTION ( 'NONE',  ( 1.903218546456022717E-15, 0.8571673007021097801, 0.5150380749100585964 ) ) ;
#166 = AXIS2_PLACEMENT_3D ( 'NONE', #30, #231, #287 ) ;
#167 = CARTESIAN_POINT ( 'NONE',  ( 8.689802241815802900E-14, -1.099999999999998090, 10.00000000000000000 ) ) ;
#168 = EDGE_CURVE ( 'NONE', #183, #102, #283, .T. ) ;
#169 = DIRECTION ( 'NONE',  ( -3.491481338843133355E-15, 1.224646799147353207E-16, -1.000000000000000000 ) ) ;
#170 = DIRECTION ( 'NONE',  ( 1.798245827342160317E-15, -0.8571673007021098911, 0.5150380749100582634 ) ) ;
#171 = CARTESIAN_POINT ( 'NONE',  ( 2.307683002438522405E-15, -1.099999999999995426, 0.6609466809303209400 ) ) ;
#172 = CARTESIAN_POINT ( 'NONE',  ( 2.307683002438522799E-15, -8.094262372083846068E-17, 0.6609466809303210511 ) ) ;
#173 = AXIS2_PLACEMENT_3D ( 'NONE', #126, #90, #184 ) ;
#174 = DIRECTION ( 'NONE',  ( -3.501690807976807030E-31, -1.000000000000000000, -9.856383386231899503E-17 ) ) ;
#175 = VERTEX_POINT ( 'NONE', #147 ) ;
#176 = CARTESIAN_POINT ( 'NONE',  ( 1.386118091520723879E-13, -4.861847792614992166E-15, 39.69999999999999574 ) ) ;
#177 = APPROVAL_PERSON_ORGANIZATION ( #278, #98, #128 ) ;
#178 = CC_DESIGN_DATE_AND_TIME_ASSIGNMENT ( #275, #22, ( #157 ) ) ;
#179 = ORIENTED_EDGE ( 'NONE', *, *, #327, .F. ) ;
#180 = CIRCLE ( 'NONE', #263, 1.099999999999996758 ) ;
#181 = APPROVAL_STATUS ( 'not_yet_approved' ) ;
#182 = EDGE_LOOP ( 'NONE', ( #202, #203, #89, #88 ) ) ;
#183 = VERTEX_POINT ( 'NONE', #167 ) ;
#184 = DIRECTION ( 'NONE',  ( 4.275831445896958607E-31, 1.000000000000000000, 1.224646799147353207E-16 ) ) ;
#185 = DIRECTION ( 'NONE',  ( -3.491481338843133355E-15, 1.224646799147353207E-16, -1.000000000000000000 ) ) ;
#186 = AXIS2_PLACEMENT_3D ( 'NONE', #172, #80, #174 ) ;
#187 = EDGE_CURVE ( 'NONE', #254, #267, #158, .T. ) ;
#188 = CARTESIAN_POINT ( 'NONE',  ( 3.491481338843133355E-14, -1.224646799147353256E-15, 10.00000000000000000 ) ) ;
#189 = ADVANCED_FACE ( 'NONE', ( #148 ), #16, .F. ) ;
#190 = AXIS2_PLACEMENT_3D ( 'NONE', #225, #228, #200 ) ;
#191 = CARTESIAN_POINT ( 'NONE',  ( 1.396592535537253342E-13, -4.898587196589413026E-15, 40.00000000000000000 ) ) ;
#192 = CARTESIAN_POINT ( 'NONE',  ( 1.396592535537253342E-13, 0.7999999999999956035, 40.00000000000000000 ) ) ;
#193 = CONICAL_SURFACE ( 'NONE', #186, 1.099999999999995426, 1.029744258676649649 ) ;
#194 = CC_DESIGN_PERSON_AND_ORGANIZATION_ASSIGNMENT ( #281, #81, ( #157 ) ) ;
#195 = CARTESIAN_POINT ( 'NONE',  ( 1.397572252976571274E-13, -0.8000000000000053735, 40.00000000000000000 ) ) ;
#196 = APPROVAL ( #163, 'UNSPECIFIED' ) ;
#197 = COORDINATED_UNIVERSAL_TIME_OFFSET ( 1, 0, .AHEAD. ) ;
#198 = LOCAL_TIME ( 9, 22, 4.000000000000000000, #197 ) ;
#199 = ORIENTED_EDGE ( 'NONE', *, *, #142, .T. ) ;
#200 = DIRECTION ( 'NONE',  ( 0.0000000000000000000, 1.000000000000000000, 0.0000000000000000000 ) ) ;
#201 = PERSON_AND_ORGANIZATION_ROLE ( 'classification_officer' ) ;
#202 = ORIENTED_EDGE ( 'NONE', *, *, #132, .T. ) ;
#203 = ORIENTED_EDGE ( 'NONE', *, *, #52, .T. ) ;
#204 = VECTOR ( 'NONE', #165, 999.9999999999998863 ) ;
#205 = CALENDAR_DATE ( 2021, 3, 9 ) ;
#206 = VERTEX_POINT ( 'NONE', #53 ) ;
#207 = DIRECTION ( 'NONE',  ( -3.491481338843133355E-15, 1.224646799147353207E-16, -1.000000000000000000 ) ) ;
#208 = DATE_AND_TIME ( #143, #44 ) ;
#209 = AXIS2_PLACEMENT_3D ( 'NONE', #133, #207, #34 ) ;
#210 =( NAMED_UNIT ( * ) SI_UNIT ( $, .STERADIAN. ) SOLID_ANGLE_UNIT ( ) );
#211 = CARTESIAN_POINT ( 'NONE',  ( 2.442394150344731304E-15, 1.099999999999995426, 0.6609466809303211621 ) ) ;
#212 = DIRECTION ( 'NONE',  ( -3.491481338843133355E-15, 1.224646799147353207E-16, -1.000000000000000000 ) ) ;
#213 = CARTESIAN_POINT ( 'NONE',  ( 2.442394150344731304E-15, 1.099999999999995426, 0.6609466809303211621 ) ) ;
#214 = ORGANIZATION ( 'UNSPECIFIED', 'UNSPECIFIED', '' ) ;
#215 = EDGE_CURVE ( 'NONE', #175, #258, #326, .T. ) ;
#216 = ADVANCED_BREP_SHAPE_REPRESENTATION ( '39655', ( #273, #264, #32 ), #277 ) ;
#217 = DIRECTION ( 'NONE',  ( 0.0000000000000000000, 1.000000000000000000, 0.0000000000000000000 ) ) ;
#218 = DIRECTION ( 'NONE',  ( 0.0000000000000000000, 1.000000000000000000, 0.0000000000000000000 ) ) ;
#219 = ORIENTED_EDGE ( 'NONE', *, *, #52, .F. ) ;
#220 = DIRECTION ( 'NONE',  ( 0.0000000000000000000, 1.000000000000000000, 0.0000000000000000000 ) ) ;
#221 = AXIS2_PLACEMENT_3D ( 'NONE', #65, #235, #324 ) ;
#222 = ORIENTED_EDGE ( 'NONE', *, *, #142, .F. ) ;
#223 = CARTESIAN_POINT ( 'NONE',  ( 4.703414590486638002E-31, 1.099999999999996092, 1.347111479062083819E-16 ) ) ;
#224 = CARTESIAN_POINT ( 'NONE',  ( 0.0000000000000000000, 0.0000000000000000000, 0.0000000000000000000 ) ) ;
#225 = CARTESIAN_POINT ( 'NONE',  ( 1.396592535537253342E-13, -4.898587196589413026E-15, 40.00000000000000000 ) ) ;
#226 = DIRECTION ( 'NONE',  ( -3.491481338843133355E-15, 1.224646799147353207E-16, -1.000000000000000000 ) ) ;
#227 = AXIS2_PLACEMENT_3D ( 'NONE', #188, #262, #114 ) ;
#228 = DIRECTION ( 'NONE',  ( -3.491481338843133355E-15, 1.224646799147353207E-16, -1.000000000000000000 ) ) ;
#229 = DIRECTION ( 'NONE',  ( 3.501690807976807030E-31, 1.000000000000000000, 9.856383386231899503E-17 ) ) ;
#230 = ADVANCED_FACE ( 'NONE', ( #307 ), #250, .T. ) ;
#231 = DIRECTION ( 'NONE',  ( 3.491481338843133355E-15, -1.224646799147353207E-16, 1.000000000000000000 ) ) ;
#232 = VECTOR ( 'NONE', #226, 1000.000000000000000 ) ;
#233 = ADVANCED_FACE ( 'NONE', ( #110 ), #234, .F. ) ;
#234 = PLANE ( 'NONE',  #166 ) ;
#235 = DIRECTION ( 'NONE',  ( 3.491481338843133355E-15, -1.224646799147353207E-16, 1.000000000000000000 ) ) ;
#236 = CALENDAR_DATE ( 2021, 3, 9 ) ;
#237 = DIRECTION ( 'NONE',  ( -3.491481338843133355E-15, 1.224646799147353207E-16, -1.000000000000000000 ) ) ;
#238 = AXIS2_PLACEMENT_3D ( 'NONE', #97, #117, #74 ) ;
#239 = EDGE_CURVE ( 'NONE', #258, #175, #57, .T. ) ;
#240 = FACE_OUTER_BOUND ( 'NONE', #84, .T. ) ;
#241 = CARTESIAN_POINT ( 'NONE',  ( 3.491481338843133355E-14, -1.224646799147353256E-15, 10.00000000000000000 ) ) ;
#242 = DIRECTION ( 'NONE',  ( -2.382254525458724175E-15, -0.7071067811865452413, -0.7071067811865497932 ) ) ;
#243 = AXIS2_PLACEMENT_3D ( 'NONE', #265, #46, #12 ) ;
#244 = EDGE_LOOP ( 'NONE', ( #24, #61 ) ) ;
#245 = DIRECTION ( 'NONE',  ( 3.501690807976807030E-31, 1.000000000000000000, 9.856383386231899503E-17 ) ) ;
#246 = DIRECTION ( 'NONE',  ( -3.491481338843133355E-15, 1.224646799147353207E-16, -1.000000000000000000 ) ) ;
#247 = EDGE_LOOP ( 'NONE', ( #219, #271, #60, #99 ) ) ;
#248 = CYLINDRICAL_SURFACE ( 'NONE', #293, 1.099999999999996092 ) ;
#249 = EDGE_LOOP ( 'NONE', ( #95, #69, #286, #93 ) ) ;
#250 = CYLINDRICAL_SURFACE ( 'NONE', #173, 1.099999999999998535 ) ;
#251 = LINE ( 'NONE', #192, #103 ) ;
#252 = CC_DESIGN_SECURITY_CLASSIFICATION ( #15, ( #256 ) ) ;
#253 = FACE_OUTER_BOUND ( 'NONE', #182, .T. ) ;
#254 = VERTEX_POINT ( 'NONE', #315 ) ;
#255 = AXIS2_PLACEMENT_3D ( 'NONE', #48, #120, #328 ) ;
#256 = PRODUCT_DEFINITION_FORMATION_WITH_SPECIFIED_SOURCE ( 'ANY', '', #274, .NOT_KNOWN. ) ;
#257 = CC_DESIGN_PERSON_AND_ORGANIZATION_ASSIGNMENT ( #111, #115, ( #274 ) ) ;
#258 = VERTEX_POINT ( 'NONE', #86 ) ;
#259 = ORIENTED_EDGE ( 'NONE', *, *, #161, .F. ) ;
#260 = EDGE_CURVE ( 'NONE', #254, #102, #39, .T. ) ;
#261 = LOCAL_TIME ( 9, 22, 4.000000000000000000, #37 ) ;
#262 = DIRECTION ( 'NONE',  ( -3.491481338843133355E-15, 1.224646799147353207E-16, -1.000000000000000000 ) ) ;
#263 = AXIS2_PLACEMENT_3D ( 'NONE', #330, #185, #311 ) ;
#264 = MANIFOLD_SOLID_BREP ( 'Corps-Déplacer/Copier1[2]', #331 ) ;
#265 = CARTESIAN_POINT ( 'NONE',  ( 2.307683002438522799E-15, -8.094262372083846068E-17, 0.6609466809303210511 ) ) ;
#266 = DIRECTION ( 'NONE',  ( 0.0000000000000000000, 0.0000000000000000000, 1.000000000000000000 ) ) ;
#267 = VERTEX_POINT ( 'NONE', #320 ) ;
#268 = CYLINDRICAL_SURFACE ( 'NONE', #255, 1.099999999999998535 ) ;
#269 = DIRECTION ( 'NONE',  ( -3.491481338843133355E-15, 1.224646799147353207E-16, -1.000000000000000000 ) ) ;
#270 = AXIS2_PLACEMENT_3D ( 'NONE', #116, #169, #245 ) ;
#271 = ORIENTED_EDGE ( 'NONE', *, *, #285, .T. ) ;
#272 = CARTESIAN_POINT ( 'NONE',  ( 1.874595934334111696E-14, -1.099999999999998090, 10.00000000000000000 ) ) ;
#273 = MANIFOLD_SOLID_BREP ( 'Corps-Déplacer/Copier1[1]', #10 ) ;
#274 = PRODUCT ( '39655', '39655', '', ( #145 ) ) ;
#275 = DATE_AND_TIME ( #299, #198 ) ;
#276 = ORIENTED_EDGE ( 'NONE', *, *, #106, .T. ) ;
#277 =( GEOMETRIC_REPRESENTATION_CONTEXT ( 3 ) GLOBAL_UNCERTAINTY_ASSIGNED_CONTEXT ( ( #329 ) ) GLOBAL_UNIT_ASSIGNED_CONTEXT ( ( #101, #300, #210 ) ) REPRESENTATION_CONTEXT ( 'NONE', 'WORKASPACE' ) );
#278 = PERSON_AND_ORGANIZATION ( #18, #214 ) ;
#279 = EDGE_LOOP ( 'NONE', ( #63, #119 ) ) ;
#280 = DIRECTION ( 'NONE',  ( -3.491481338843133355E-15, 1.224646799147353207E-16, -1.000000000000000000 ) ) ;
#281 = PERSON_AND_ORGANIZATION ( #18, #214 ) ;
#282 = APPROVAL ( #181, 'UNSPECIFIED' ) ;
#283 = CIRCLE ( 'NONE', #154, 1.099999999999996758 ) ;
#284 = EDGE_LOOP ( 'NONE', ( #47, #5, #336, #112 ) ) ;
#285 = EDGE_CURVE ( 'NONE', #36, #308, #144, .T. ) ;
#286 = ORIENTED_EDGE ( 'NONE', *, *, #260, .T. ) ;
#287 = DIRECTION ( 'NONE',  ( -4.275831445896958607E-31, -1.000000000000000000, -1.224646799147353207E-16 ) ) ;
#288 = CONICAL_SURFACE ( 'NONE', #309, 0.8000000000000004885, 0.7853981633974452814 ) ;
#289 = PERSON_AND_ORGANIZATION ( #18, #214 ) ;
#290 = VERTEX_POINT ( 'NONE', #211 ) ;
#291 = PERSON_AND_ORGANIZATION ( #18, #214 ) ;
#292 = PRODUCT_RELATED_PRODUCT_CATEGORY ( 'detail', '', ( #274 ) ) ;
#293 = AXIS2_PLACEMENT_3D ( 'NONE', #224, #127, #27 ) ;
#294 = CARTESIAN_POINT ( 'NONE',  ( 1.396592535537253342E-13, 5.999039130647360640E-33, 40.00000000000000000 ) ) ;
#295 = FACE_OUTER_BOUND ( 'NONE', #131, .T. ) ;
#296 = VECTOR ( 'NONE', #170, 1000.000000000000000 ) ;
#297 = AXIS2_PLACEMENT_3D ( 'NONE', #176, #4, #130 ) ;
#298 = EDGE_CURVE ( 'NONE', #206, #290, #73, .T. ) ;
#299 = CALENDAR_DATE ( 2021, 3, 9 ) ;
#300 =( NAMED_UNIT ( * ) PLANE_ANGLE_UNIT ( ) SI_UNIT ( $, .RADIAN. ) );
#301 = DIRECTION ( 'NONE',  ( -3.491481338843133355E-15, 1.224646799147353207E-16, -1.000000000000000000 ) ) ;
#302 = AXIS2_PLACEMENT_3D ( 'NONE', #191, #76, #217 ) ;
#303 = COORDINATED_UNIVERSAL_TIME_OFFSET ( 1, 0, .AHEAD. ) ;
#304 = EDGE_CURVE ( 'NONE', #312, #290, #87, .T. ) ;
#305 = ORIENTED_EDGE ( 'NONE', *, *, #304, .T. ) ;
#306 = ORIENTED_EDGE ( 'NONE', *, *, #121, .T. ) ;
#307 = FACE_OUTER_BOUND ( 'NONE', #249, .T. ) ;
#308 = VERTEX_POINT ( 'NONE', #45 ) ;
#309 = AXIS2_PLACEMENT_3D ( 'NONE', #50, #246, #218 ) ;
#310 = ORIENTED_EDGE ( 'NONE', *, *, #298, .F. ) ;
#311 = DIRECTION ( 'NONE',  ( 0.0000000000000000000, 1.000000000000000000, 0.0000000000000000000 ) ) ;
#312 = VERTEX_POINT ( 'NONE', #75 ) ;
#313 = ADVANCED_FACE ( 'NONE', ( #240 ), #268, .T. ) ;
#314 = SHAPE_DEFINITION_REPRESENTATION ( #337, #216 ) ;
#315 = CARTESIAN_POINT ( 'NONE',  ( 1.386118091520723879E-13, 1.099999999999995426, 39.69999999999999574 ) ) ;
#316 = DATE_AND_TIME ( #205, #135 ) ;
#317 = APPROVAL_ROLE ( '' ) ;
#318 = CALENDAR_DATE ( 2021, 3, 9 ) ;
#319 = AXIS2_PLACEMENT_3D ( 'NONE', #294, #269, #124 ) ;
#320 = CARTESIAN_POINT ( 'NONE',  ( 8.689802241815791540E-14, -1.100000000000004974, 39.69999999999999574 ) ) ;
#321 = FACE_OUTER_BOUND ( 'NONE', #244, .T. ) ;
#322 = PERSON_AND_ORGANIZATION_ROLE ( 'creator' ) ;
#323 = ADVANCED_FACE ( 'NONE', ( #123 ), #26, .T. ) ;
#324 = DIRECTION ( 'NONE',  ( -4.275831445896958607E-31, -1.000000000000000000, -1.224646799147353207E-16 ) ) ;
#325 = FACE_OUTER_BOUND ( 'NONE', #64, .T. ) ;
#326 = CIRCLE ( 'NONE', #190, 0.8000000000000004885 ) ;
#327 = EDGE_CURVE ( 'NONE', #102, #183, #180, .T. ) ;
#328 = DIRECTION ( 'NONE',  ( 4.275831445896958607E-31, 1.000000000000000000, 1.224646799147353207E-16 ) ) ;
#329 = UNCERTAINTY_MEASURE_WITH_UNIT (LENGTH_MEASURE( 1.000000000000000082E-05 ), #101, 'distance_accuracy_value', 'NONE');
#330 = CARTESIAN_POINT ( 'NONE',  ( 3.491481338843133355E-14, -1.224646799147353256E-15, 10.00000000000000000 ) ) ;
#331 = CLOSED_SHELL ( 'NONE', ( #105, #23, #33, #38, #109 ) ) ;
#332 = LINE ( 'NONE', #171, #296 ) ;
#333 = ORIENTED_EDGE ( 'NONE', *, *, #215, .T. ) ;
#334 = ORIENTED_EDGE ( 'NONE', *, *, #17, .T. ) ;
#335 = DIRECTION ( 'NONE',  ( -3.491481338843133355E-15, 1.224646799147353207E-16, -1.000000000000000000 ) ) ;
#336 = ORIENTED_EDGE ( 'NONE', *, *, #187, .F. ) ;
#337 = PRODUCT_DEFINITION_SHAPE ( 'NONE', 'NONE',  #157 ) ;
ENDSEC;
END-ISO-10303-21;
