ISO-10303-21;
HEADER;
FILE_DESCRIPTION (( 'STEP AP203' ),
    '1' );
FILE_NAME ('39577.step',
    '2021-11-01T09:45:35',
    ( '' ),
    ( '' ),
    'SwSTEP 2.0',
    'SolidWorks 2019',
    '' );
FILE_SCHEMA (( 'CONFIG_CONTROL_DESIGN' ));
ENDSEC;

DATA;
#1 = APPLICATION_PROTOCOL_DEFINITION ( 'international standard', 'config_control_design', 1994, #99 ) ;
#2 = CC_DESIGN_APPROVAL ( #92, ( #11 ) ) ;
#3 = ORIENTED_EDGE ( 'NONE', *, *, #93, .T. ) ;
#4 = EDGE_LOOP ( 'NONE', ( #208 ) ) ;
#5 = EDGE_LOOP ( 'NONE', ( #211 ) ) ;
#6 = ADVANCED_FACE ( 'NONE', ( #191 ), #134, .F. ) ;
#7 = EDGE_LOOP ( 'NONE', ( #3 ) ) ;
#8 = CIRCLE ( 'NONE', #13, 1.499999999999997558 ) ;
#9 = CARTESIAN_POINT ( 'NONE',  ( 1.326762908760390423E-13, -4.653657836759941941E-15, 38.00000000000000000 ) ) ;
#10 = PLANE ( 'NONE',  #44 ) ;
#11 = PRODUCT_DEFINITION ( 'UNKNOWN', '', #80, #16 ) ;
#12 = DIRECTION ( 'NONE',  ( 0.0000000000000000000, -1.000000000000000000, 0.0000000000000000000 ) ) ;
#13 = AXIS2_PLACEMENT_3D ( 'NONE', #87, #72, #47 ) ;
#14 = ADVANCED_FACE ( 'NONE', ( #144, #91 ), #161, .T. ) ;
#15 = FACE_OUTER_BOUND ( 'NONE', #4, .T. ) ;
#16 = DESIGN_CONTEXT ( 'detailed design', #99, 'design' ) ;
#17 = CARTESIAN_POINT ( 'NONE',  ( -8.571711116311308311E-31, -1.000000000000000000, -2.455035638011302117E-16 ) ) ;
#18 = COORDINATED_UNIVERSAL_TIME_OFFSET ( 1, 0, .AHEAD. ) ;
#19 = CIRCLE ( 'NONE', #27, 0.9999999999999997780 ) ;
#20 = VERTEX_POINT ( 'NONE', #126 ) ;
#21 = EDGE_CURVE ( 'NONE', #142, #142, #181, .T. ) ;
#22 = APPROVAL_STATUS ( 'not_yet_approved' ) ;
#23 = PRODUCT ( '39577', '39577', '', ( #223 ) ) ;
#24 = PERSON_AND_ORGANIZATION_ROLE ( 'design_owner' ) ;
#25 = AXIS2_PLACEMENT_3D ( 'NONE', #152, #153, #106 ) ;
#26 = ORIENTED_EDGE ( 'NONE', *, *, #98, .F. ) ;
#27 = AXIS2_PLACEMENT_3D ( 'NONE', #89, #180, #167 ) ;
#28 = PRODUCT_RELATED_PRODUCT_CATEGORY ( 'detail', '', ( #23 ) ) ;
#29 = DIRECTION ( 'NONE',  ( 3.491481338843133355E-15, -1.224646799147353207E-16, 1.000000000000000000 ) ) ;
#30 = PLANE ( 'NONE',  #163 ) ;
#31 = FACE_OUTER_BOUND ( 'NONE', #42, .T. ) ;
#32 = CARTESIAN_POINT ( 'NONE',  ( 1.326762908760390423E-13, 8.998558695971062171E-33, 38.00000000000000000 ) ) ;
#33 = DIRECTION ( 'NONE',  ( 4.275831445896958607E-31, 1.000000000000000000, 1.224646799147353207E-16 ) ) ;
#34 = CLOSED_SHELL ( 'NONE', ( #218, #113, #200 ) ) ;
#35 = CARTESIAN_POINT ( 'NONE',  ( 2.094888803305879698E-14, -7.365106914033905366E-16, 5.999999999999999112 ) ) ;
#36 = PERSON_AND_ORGANIZATION ( #88, #154 ) ;
#37 = CARTESIAN_POINT ( 'NONE',  ( 0.0000000000000000000, 0.0000000000000000000, 0.0000000000000000000 ) ) ;
#38 = AXIS2_PLACEMENT_3D ( 'NONE', #32, #197, #73 ) ;
#39 = CC_DESIGN_PERSON_AND_ORGANIZATION_ASSIGNMENT ( #162, #45, ( #80 ) ) ;
#40 = AXIS2_PLACEMENT_3D ( 'NONE', #195, #122, #215 ) ;
#41 = PERSON_AND_ORGANIZATION ( #88, #154 ) ;
#42 = EDGE_LOOP ( 'NONE', ( #116 ) ) ;
#43 = CALENDAR_DATE ( 2021, 1, 11 ) ;
#44 = AXIS2_PLACEMENT_3D ( 'NONE', #71, #137, #55 ) ;
#45 = PERSON_AND_ORGANIZATION_ROLE ( 'design_supplier' ) ;
#46 = CARTESIAN_POINT ( 'NONE',  ( 2.094888803305880013E-14, 1.124819836996387458E-32, 6.000000000000000000 ) ) ;
#47 = DIRECTION ( 'NONE',  ( 0.0000000000000000000, 1.000000000000000000, 0.0000000000000000000 ) ) ;
#48 = LOCAL_TIME ( 10, 45, 35.00000000000000000, #210 ) ;
#49 = FACE_OUTER_BOUND ( 'NONE', #84, .T. ) ;
#50 = FACE_OUTER_BOUND ( 'NONE', #67, .T. ) ;
#51 = CARTESIAN_POINT ( 'NONE',  ( -4.285855558155654155E-31, -7.481082693103416555E-33, -1.227517819005651059E-16 ) ) ;
#52 = DIRECTION ( 'NONE',  ( -4.285855558155654155E-31, -1.000000000000000000, -1.227517819005651059E-16 ) ) ;
#53 = CC_DESIGN_DATE_AND_TIME_ASSIGNMENT ( #128, #111, ( #11 ) ) ;
#54 = DATE_AND_TIME ( #171, #165 ) ;
#55 = DIRECTION ( 'NONE',  ( -4.275831445896958607E-31, -1.000000000000000000, -1.224646799147353207E-16 ) ) ;
#56 = AXIS2_PLACEMENT_3D ( 'NONE', #51, #219, #52 ) ;
#57 = APPROVAL_DATE_TIME ( #54, #92 ) ;
#58 = DIRECTION ( 'NONE',  ( 1.000000000000000000, 0.0000000000000000000, 0.0000000000000000000 ) ) ;
#59 = CC_DESIGN_PERSON_AND_ORGANIZATION_ASSIGNMENT ( #179, #193, ( #207 ) ) ;
#60 = EDGE_LOOP ( 'NONE', ( #148 ) ) ;
#61 = AXIS2_PLACEMENT_3D ( 'NONE', #37, #186, #58 ) ;
#62 = EDGE_LOOP ( 'NONE', ( #177 ) ) ;
#63 = DATE_AND_TIME ( #43, #145 ) ;
#64 = ORIENTED_EDGE ( 'NONE', *, *, #83, .T. ) ;
#65 = ORIENTED_EDGE ( 'NONE', *, *, #131, .F. ) ;
#66 = APPROVAL_PERSON_ORGANIZATION ( #41, #166, #176 ) ;
#67 = EDGE_LOOP ( 'NONE', ( #213 ) ) ;
#68 = DIRECTION ( 'NONE',  ( -3.491481338843133355E-15, 1.224646799147353207E-16, -1.000000000000000000 ) ) ;
#69 = ADVANCED_FACE ( 'NONE', ( #50 ), #94, .F. ) ;
#70 = AXIS2_PLACEMENT_3D ( 'NONE', #9, #136, #155 ) ;
#71 = CARTESIAN_POINT ( 'NONE',  ( 2.094888803305880013E-14, 1.124819836996387458E-32, 6.000000000000000000 ) ) ;
#72 = DIRECTION ( 'NONE',  ( -3.491481338843133355E-15, 1.224646799147353207E-16, -1.000000000000000000 ) ) ;
#73 = DIRECTION ( 'NONE',  ( 4.275831445896958607E-31, 1.000000000000000000, 1.224646799147353207E-16 ) ) ;
#74 = APPROVAL_ROLE ( '' ) ;
#75 = AXIS2_PLACEMENT_3D ( 'NONE', #35, #217, #12 ) ;
#76 =( NAMED_UNIT ( * ) PLANE_ANGLE_UNIT ( ) SI_UNIT ( $, .RADIAN. ) );
#77 = APPLICATION_PROTOCOL_DEFINITION ( 'international standard', 'config_control_design', 1994, #174 ) ;
#78 = ADVANCED_FACE ( 'NONE', ( #15, #86 ), #216, .T. ) ;
#79 = PERSON_AND_ORGANIZATION_ROLE ( 'creator' ) ;
#80 = PRODUCT_DEFINITION_FORMATION_WITH_SPECIFIED_SOURCE ( 'ANY', '', #23, .NOT_KNOWN. ) ;
#81 = CARTESIAN_POINT ( 'NONE',  ( 1.316288464743861212E-13, 1.499999999999993117, 37.69999999999999574 ) ) ;
#82 = DATE_AND_TIME ( #172, #48 ) ;
#83 = EDGE_CURVE ( 'NONE', #130, #130, #85, .T. ) ;
#84 = EDGE_LOOP ( 'NONE', ( #194 ) ) ;
#85 = CIRCLE ( 'NONE', #56, 1.000000000000000000 ) ;
#86 = FACE_OUTER_BOUND ( 'NONE', #5, .T. ) ;
#87 = CARTESIAN_POINT ( 'NONE',  ( 1.316288464743861212E-13, -4.616918432785521081E-15, 37.69999999999999574 ) ) ;
#88 = PERSON ( 'UNSPECIFIED', 'UNSPECIFIED', 'UNSPECIFIED', ('UNSPECIFIED'), ('UNSPECIFIED'), ('UNSPECIFIED') ) ;
#89 = CARTESIAN_POINT ( 'NONE',  ( 2.094888803305879698E-14, -7.365106914033905366E-16, 5.999999999999999112 ) ) ;
#90 = AXIS2_PLACEMENT_3D ( 'NONE', #46, #29, #103 ) ;
#91 = FACE_BOUND ( 'NONE', #7, .T. ) ;
#92 = APPROVAL ( #157, 'UNSPECIFIED' ) ;
#93 = EDGE_CURVE ( 'NONE', #20, #20, #149, .T. ) ;
#94 = PLANE ( 'NONE',  #38 ) ;
#95 = VERTEX_POINT ( 'NONE', #206 ) ;
#96 = CALENDAR_DATE ( 2021, 1, 11 ) ;
#97 = CARTESIAN_POINT ( 'NONE',  ( 2.094888803305879698E-14, -1.000000000000000444, 5.999999999999999112 ) ) ;
#98 = EDGE_CURVE ( 'NONE', #139, #139, #8, .T. ) ;
#99 = APPLICATION_CONTEXT ( 'configuration controlled 3d designs of mechanical parts and assemblies' ) ;
#100 = PERSON_AND_ORGANIZATION ( #88, #154 ) ;
#101 = EDGE_LOOP ( 'NONE', ( #64 ) ) ;
#102 = EDGE_LOOP ( 'NONE', ( #26 ) ) ;
#103 = DIRECTION ( 'NONE',  ( -4.275831445896958607E-31, -1.000000000000000000, -1.224646799147353207E-16 ) ) ;
#104 = APPROVAL_PERSON_ORGANIZATION ( #202, #190, #74 ) ;
#105 = CYLINDRICAL_SURFACE ( 'NONE', #173, 1.000000000000000000 ) ;
#106 = DIRECTION ( 'NONE',  ( -4.348338603810381847E-31, -1.000000000000000000, -1.227517819005651059E-16 ) ) ;
#107 = DIRECTION ( 'NONE',  ( 3.491481338843133355E-15, -1.227517819005651059E-16, 1.000000000000000000 ) ) ;
#108 = MANIFOLD_SOLID_BREP ( 'Corps-Déplacer/Copier1[2]', #34 ) ;
#109 = MANIFOLD_SOLID_BREP ( 'Corps-Déplacer/Copier1[1]', #192 ) ;
#110 = DIRECTION ( 'NONE',  ( 0.0000000000000000000, 1.000000000000000000, 0.0000000000000000000 ) ) ;
#111 = DATE_TIME_ROLE ( 'creation_date' ) ;
#112 = COORDINATED_UNIVERSAL_TIME_OFFSET ( 1, 0, .AHEAD. ) ;
#113 = ADVANCED_FACE ( 'NONE', ( #183, #118 ), #105, .T. ) ;
#114 = CALENDAR_DATE ( 2021, 1, 11 ) ;
#115 = ORIENTED_EDGE ( 'NONE', *, *, #135, .F. ) ;
#116 = ORIENTED_EDGE ( 'NONE', *, *, #131, .T. ) ;
#117 = TOROIDAL_SURFACE ( 'NONE', #25, 9.000000000000000000, 8.000000000000000000 ) ;
#118 = FACE_OUTER_BOUND ( 'NONE', #147, .T. ) ;
#119 = LOCAL_TIME ( 10, 45, 35.00000000000000000, #18 ) ;
#120 = CARTESIAN_POINT ( 'NONE',  ( -6.413803915257455362E-31, 2.249659577954771652E-32, -1.836986451539392583E-16 ) ) ;
#121 = CC_DESIGN_PERSON_AND_ORGANIZATION_ASSIGNMENT ( #168, #125, ( #11 ) ) ;
#122 = DIRECTION ( 'NONE',  ( -3.491481338843133355E-15, 1.227517819005651059E-16, -1.000000000000000000 ) ) ;
#123 = CC_DESIGN_SECURITY_CLASSIFICATION ( #207, ( #80 ) ) ;
#124 = DIRECTION ( 'NONE',  ( -4.285855558155654155E-31, -1.000000000000000000, -1.227517819005651305E-16 ) ) ;
#125 = PERSON_AND_ORGANIZATION_ROLE ( 'creator' ) ;
#126 = CARTESIAN_POINT ( 'NONE',  ( 1.326762908760390423E-13, 1.199999999999993294, 38.00000000000000000 ) ) ;
#127 = CIRCLE ( 'NONE', #75, 0.9999999999999997780 ) ;
#128 = DATE_AND_TIME ( #114, #188 ) ;
#129 = CC_DESIGN_DATE_AND_TIME_ASSIGNMENT ( #63, #175, ( #207 ) ) ;
#130 = VERTEX_POINT ( 'NONE', #17 ) ;
#131 = EDGE_CURVE ( 'NONE', #95, #95, #127, .T. ) ;
#132 = EDGE_LOOP ( 'NONE', ( #115 ) ) ;
#133 = AXIS2_PLACEMENT_3D ( 'NONE', #164, #68, #110 ) ;
#134 = PLANE ( 'NONE',  #90 ) ;
#135 = EDGE_CURVE ( 'NONE', #220, #220, #19, .T. ) ;
#136 = DIRECTION ( 'NONE',  ( -3.491481338843133355E-15, 1.224646799147353207E-16, -1.000000000000000000 ) ) ;
#137 = DIRECTION ( 'NONE',  ( 3.491481338843133355E-15, -1.224646799147353207E-16, 1.000000000000000000 ) ) ;
#138 = CARTESIAN_POINT ( 'NONE',  ( 0.0000000000000000000, 0.0000000000000000000, 0.0000000000000000000 ) ) ;
#139 = VERTEX_POINT ( 'NONE', #81 ) ;
#140 = APPROVAL_ROLE ( '' ) ;
#141 =( GEOMETRIC_REPRESENTATION_CONTEXT ( 3 ) GLOBAL_UNCERTAINTY_ASSIGNED_CONTEXT ( ( #184 ) ) GLOBAL_UNIT_ASSIGNED_CONTEXT ( ( #201, #76, #187 ) ) REPRESENTATION_CONTEXT ( 'NONE', 'WORKASPACE' ) );
#142 = VERTEX_POINT ( 'NONE', #169 ) ;
#143 = ADVANCED_FACE ( 'NONE', ( #151, #214 ), #117, .F. ) ;
#144 = FACE_OUTER_BOUND ( 'NONE', #102, .T. ) ;
#145 = LOCAL_TIME ( 10, 45, 35.00000000000000000, #212 ) ;
#146 = SECURITY_CLASSIFICATION_LEVEL ( 'unclassified' ) ;
#147 = EDGE_LOOP ( 'NONE', ( #65 ) ) ;
#148 = ORIENTED_EDGE ( 'NONE', *, *, #21, .T. ) ;
#149 = CIRCLE ( 'NONE', #70, 1.199999999999997957 ) ;
#150 = ADVANCED_BREP_SHAPE_REPRESENTATION ( '39577', ( #109, #108, #61 ), #141 ) ;
#151 = FACE_OUTER_BOUND ( 'NONE', #62, .T. ) ;
#152 = CARTESIAN_POINT ( 'NONE',  ( 2.094888803305879698E-14, 0.0000000000000000000, 5.999999999999999112 ) ) ;
#153 = DIRECTION ( 'NONE',  ( 3.491481338843133355E-15, -1.227517819005651059E-16, 1.000000000000000000 ) ) ;
#154 = ORGANIZATION ( 'UNSPECIFIED', 'UNSPECIFIED', '' ) ;
#155 = DIRECTION ( 'NONE',  ( 0.0000000000000000000, 1.000000000000000000, 0.0000000000000000000 ) ) ;
#156 = DATE_AND_TIME ( #96, #119 ) ;
#157 = APPROVAL_STATUS ( 'not_yet_approved' ) ;
#158 = APPROVAL_PERSON_ORGANIZATION ( #204, #92, #140 ) ;
#159 = APPROVAL_DATE_TIME ( #82, #166 ) ;
#160 = APPROVAL_STATUS ( 'not_yet_approved' ) ;
#161 = CONICAL_SURFACE ( 'NONE', #133, 1.199999999999997957, 0.7853981633974450594 ) ;
#162 = PERSON_AND_ORGANIZATION ( #88, #154 ) ;
#163 = AXIS2_PLACEMENT_3D ( 'NONE', #120, #198, #182 ) ;
#164 = CARTESIAN_POINT ( 'NONE',  ( 1.326762908760390423E-13, -4.653657836759941941E-15, 38.00000000000000000 ) ) ;
#165 = LOCAL_TIME ( 10, 45, 35.00000000000000000, #185 ) ;
#166 = APPROVAL ( #160, 'UNSPECIFIED' ) ;
#167 = DIRECTION ( 'NONE',  ( 0.0000000000000000000, -1.000000000000000000, 0.0000000000000000000 ) ) ;
#168 = PERSON_AND_ORGANIZATION ( #88, #154 ) ;
#169 = CARTESIAN_POINT ( 'NONE',  ( 3.066876071900718944E-14, 1.499999999999995337, 8.783882181415000545 ) ) ;
#170 = CC_DESIGN_PERSON_AND_ORGANIZATION_ASSIGNMENT ( #36, #24, ( #23 ) ) ;
#171 = CALENDAR_DATE ( 2021, 1, 11 ) ;
#172 = CALENDAR_DATE ( 2021, 1, 11 ) ;
#173 = AXIS2_PLACEMENT_3D ( 'NONE', #196, #107, #124 ) ;
#174 = APPLICATION_CONTEXT ( 'configuration controlled 3d designs of mechanical parts and assemblies' ) ;
#175 = DATE_TIME_ROLE ( 'classification_date' ) ;
#176 = APPROVAL_ROLE ( '' ) ;
#177 = ORIENTED_EDGE ( 'NONE', *, *, #135, .T. ) ;
#178 = CC_DESIGN_APPROVAL ( #166, ( #207 ) ) ;
#179 = PERSON_AND_ORGANIZATION ( #88, #154 ) ;
#180 = DIRECTION ( 'NONE',  ( 3.491481338843133355E-15, -1.227517819005651059E-16, 1.000000000000000000 ) ) ;
#181 = CIRCLE ( 'NONE', #40, 1.499999999999995781 ) ;
#182 = DIRECTION ( 'NONE',  ( -4.275831445896958607E-31, -1.000000000000000000, -1.224646799147353207E-16 ) ) ;
#183 = FACE_OUTER_BOUND ( 'NONE', #101, .T. ) ;
#184 = UNCERTAINTY_MEASURE_WITH_UNIT (LENGTH_MEASURE( 1.000000000000000082E-05 ), #201, 'distance_accuracy_value', 'NONE');
#185 = COORDINATED_UNIVERSAL_TIME_OFFSET ( 1, 0, .AHEAD. ) ;
#186 = DIRECTION ( 'NONE',  ( 0.0000000000000000000, 0.0000000000000000000, 1.000000000000000000 ) ) ;
#187 =( NAMED_UNIT ( * ) SI_UNIT ( $, .STERADIAN. ) SOLID_ANGLE_UNIT ( ) );
#188 = LOCAL_TIME ( 10, 45, 35.00000000000000000, #112 ) ;
#189 = SHAPE_DEFINITION_REPRESENTATION ( #205, #150 ) ;
#190 = APPROVAL ( #22, 'UNSPECIFIED' ) ;
#191 = FACE_OUTER_BOUND ( 'NONE', #132, .T. ) ;
#192 = CLOSED_SHELL ( 'NONE', ( #78, #14, #69, #143, #6 ) ) ;
#193 = PERSON_AND_ORGANIZATION_ROLE ( 'classification_officer' ) ;
#194 = ORIENTED_EDGE ( 'NONE', *, *, #83, .F. ) ;
#195 = CARTESIAN_POINT ( 'NONE',  ( 3.066876071900718944E-14, -3.417264983699237320E-16, 8.783882181415000545 ) ) ;
#196 = CARTESIAN_POINT ( 'NONE',  ( -6.413731847436034514E-31, 0.0000000000000000000, -1.836965810494968570E-16 ) ) ;
#197 = DIRECTION ( 'NONE',  ( -3.491481338843133355E-15, 1.224646799147353207E-16, -1.000000000000000000 ) ) ;
#198 = DIRECTION ( 'NONE',  ( 3.491481338843133355E-15, -1.224646799147353207E-16, 1.000000000000000000 ) ) ;
#199 = DIRECTION ( 'NONE',  ( -3.491481338843133355E-15, 1.224646799147353207E-16, -1.000000000000000000 ) ) ;
#200 = ADVANCED_FACE ( 'NONE', ( #49 ), #30, .F. ) ;
#201 =( LENGTH_UNIT ( ) NAMED_UNIT ( * ) SI_UNIT ( .MILLI., .METRE. ) );
#202 = PERSON_AND_ORGANIZATION ( #88, #154 ) ;
#203 = AXIS2_PLACEMENT_3D ( 'NONE', #138, #199, #33 ) ;
#204 = PERSON_AND_ORGANIZATION ( #88, #154 ) ;
#205 = PRODUCT_DEFINITION_SHAPE ( 'NONE', 'NONE',  #11 ) ;
#206 = CARTESIAN_POINT ( 'NONE',  ( 2.094888803305879698E-14, -1.000000000000000444, 5.999999999999999112 ) ) ;
#207 = SECURITY_CLASSIFICATION ( '', '', #146 ) ;
#208 = ORIENTED_EDGE ( 'NONE', *, *, #98, .T. ) ;
#209 = CC_DESIGN_PERSON_AND_ORGANIZATION_ASSIGNMENT ( #100, #79, ( #80 ) ) ;
#210 = COORDINATED_UNIVERSAL_TIME_OFFSET ( 1, 0, .AHEAD. ) ;
#211 = ORIENTED_EDGE ( 'NONE', *, *, #21, .F. ) ;
#212 = COORDINATED_UNIVERSAL_TIME_OFFSET ( 1, 0, .AHEAD. ) ;
#213 = ORIENTED_EDGE ( 'NONE', *, *, #93, .F. ) ;
#214 = FACE_OUTER_BOUND ( 'NONE', #60, .T. ) ;
#215 = DIRECTION ( 'NONE',  ( 0.0000000000000000000, 1.000000000000000000, 0.0000000000000000000 ) ) ;
#216 = CYLINDRICAL_SURFACE ( 'NONE', #203, 1.499999999999995781 ) ;
#217 = DIRECTION ( 'NONE',  ( 3.491481338843133355E-15, -1.227517819005651059E-16, 1.000000000000000000 ) ) ;
#218 = ADVANCED_FACE ( 'NONE', ( #31 ), #10, .T. ) ;
#219 = DIRECTION ( 'NONE',  ( 3.491481338843133355E-15, -1.227517819005651059E-16, 1.000000000000000000 ) ) ;
#220 = VERTEX_POINT ( 'NONE', #97 ) ;
#221 = CC_DESIGN_APPROVAL ( #190, ( #80 ) ) ;
#222 = APPROVAL_DATE_TIME ( #156, #190 ) ;
#223 = MECHANICAL_CONTEXT ( 'NONE', #174, 'mechanical' ) ;
ENDSEC;
END-ISO-10303-21;
