ISO-10303-21;
HEADER;
FILE_DESCRIPTION (( 'STEP AP203' ),
    '1' );
FILE_NAME ('39575.step',
    '2021-09-03T07:22:04',
    ( '' ),
    ( '' ),
    'SwSTEP 2.0',
    'SolidWorks 2019',
    '' );
FILE_SCHEMA (( 'CONFIG_CONTROL_DESIGN' ));
ENDSEC;

DATA;
#1 = ADVANCED_FACE ( 'NONE', ( #86 ), #186, .T. ) ;
#2 = CIRCLE ( 'NONE', #140, 1.024999999999993028 ) ;
#3 = FACE_OUTER_BOUND ( 'NONE', #159, .T. ) ;
#4 = LOCAL_TIME ( 9, 22, 4.000000000000000000, #214 ) ;
#5 = PRODUCT ( '39575', '39575', '', ( #261 ) ) ;
#6 = DIRECTION ( 'NONE',  ( -3.491481338843133355E-15, 1.224646799147353207E-16, -1.000000000000000000 ) ) ;
#7 = PERSON_AND_ORGANIZATION_ROLE ( 'creator' ) ;
#8 = EDGE_LOOP ( 'NONE', ( #207, #64 ) ) ;
#9 = PRODUCT_DEFINITION_SHAPE ( 'NONE', 'NONE',  #267 ) ;
#10 = CALENDAR_DATE ( 2021, 3, 9 ) ;
#11 = APPROVAL ( #263, 'UNSPECIFIED' ) ;
#12 = AXIS2_PLACEMENT_3D ( 'NONE', #130, #208, #314 ) ;
#13 = CARTESIAN_POINT ( 'NONE',  ( 3.142333204958820020E-14, -1.102182119232617714E-15, 9.000000000000000000 ) ) ;
#14 = DIRECTION ( 'NONE',  ( -3.491481338843133355E-15, 1.224646799147353207E-16, -1.000000000000000000 ) ) ;
#15 = CC_DESIGN_APPROVAL ( #11, ( #300 ) ) ;
#16 = DIRECTION ( 'NONE',  ( 3.491481338843133355E-15, -1.224646799147353207E-16, 1.000000000000000000 ) ) ;
#17 = COORDINATED_UNIVERSAL_TIME_OFFSET ( 1, 0, .AHEAD. ) ;
#18 = COORDINATED_UNIVERSAL_TIME_OFFSET ( 1, 0, .AHEAD. ) ;
#19 = EDGE_CURVE ( 'NONE', #312, #44, #212, .T. ) ;
#20 = CARTESIAN_POINT ( 'NONE',  ( 3.142333204958820020E-14, -1.102182119232617714E-15, 9.000000000000000000 ) ) ;
#21 = CC_DESIGN_DATE_AND_TIME_ASSIGNMENT ( #298, #195, ( #267 ) ) ;
#22 = DIRECTION ( 'NONE',  ( 4.275831445896957731E-31, 1.000000000000000000, 1.224646799147353207E-16 ) ) ;
#23 = DIRECTION ( 'NONE',  ( 4.275831445896958607E-31, 1.000000000000000000, 1.224646799147353207E-16 ) ) ;
#24 = CARTESIAN_POINT ( 'NONE',  ( 1.326762908760390423E-13, 6.186509103480073683E-33, 38.00000000000000000 ) ) ;
#25 = DATE_AND_TIME ( #138, #4 ) ;
#26 = ORIENTED_EDGE ( 'NONE', *, *, #19, .F. ) ;
#27 = ORIENTED_EDGE ( 'NONE', *, *, #219, .F. ) ;
#28 = CARTESIAN_POINT ( 'NONE',  ( 2.150340979544981058E-15, -1.024999999999993028, 0.6158821345032520211 ) ) ;
#29 = CIRCLE ( 'NONE', #120, 1.024999999999993028 ) ;
#30 = PERSON_AND_ORGANIZATION ( #39, #121 ) ;
#31 = EDGE_CURVE ( 'NONE', #253, #34, #33, .T. ) ;
#32 = CARTESIAN_POINT ( 'NONE',  ( 1.319779946082704535E-13, -4.629164900776995227E-15, 37.79999999999999716 ) ) ;
#33 = LINE ( 'NONE', #146, #95 ) ;
#34 = VERTEX_POINT ( 'NONE', #91 ) ;
#35 = ADVANCED_FACE ( 'NONE', ( #38 ), #69, .T. ) ;
#36 = CARTESIAN_POINT ( 'NONE',  ( 1.326762908760390423E-13, -4.653657836759941941E-15, 38.00000000000000000 ) ) ;
#37 = PLANE ( 'NONE',  #71 ) ;
#38 = FACE_OUTER_BOUND ( 'NONE', #281, .T. ) ;
#39 = PERSON ( 'UNSPECIFIED', 'UNSPECIFIED', 'UNSPECIFIED', ('UNSPECIFIED'), ('UNSPECIFIED'), ('UNSPECIFIED') ) ;
#40 =( GEOMETRIC_REPRESENTATION_CONTEXT ( 3 ) GLOBAL_UNCERTAINTY_ASSIGNED_CONTEXT ( ( #126 ) ) GLOBAL_UNIT_ASSIGNED_CONTEXT ( ( #251, #73, #42 ) ) REPRESENTATION_CONTEXT ( 'NONE', 'WORKASPACE' ) );
#41 = APPROVAL_ROLE ( '' ) ;
#42 =( NAMED_UNIT ( * ) SI_UNIT ( $, .STERADIAN. ) SOLID_ANGLE_UNIT ( ) );
#43 = DIRECTION ( 'NONE',  ( -3.491481338843133355E-15, 1.224646799147353207E-16, -1.000000000000000000 ) ) ;
#44 = VERTEX_POINT ( 'NONE', #78 ) ;
#45 = DIRECTION ( 'NONE',  ( -3.491481338843133355E-15, 1.224646799147353207E-16, -1.000000000000000000 ) ) ;
#46 = LINE ( 'NONE', #74, #161 ) ;
#47 = CARTESIAN_POINT ( 'NONE',  ( 0.0000000000000000000, 0.0000000000000000000, 0.0000000000000000000 ) ) ;
#48 = AXIS2_PLACEMENT_3D ( 'NONE', #20, #43, #125 ) ;
#49 = LOCAL_TIME ( 9, 22, 4.000000000000000000, #17 ) ;
#50 = EDGE_CURVE ( 'NONE', #264, #68, #2, .T. ) ;
#51 = CARTESIAN_POINT ( 'NONE',  ( 2.150340979544981452E-15, -7.542380846714474494E-17, 0.6158821345032521322 ) ) ;
#52 = ORIENTED_EDGE ( 'NONE', *, *, #219, .T. ) ;
#53 = CC_DESIGN_PERSON_AND_ORGANIZATION_ASSIGNMENT ( #62, #112, ( #152 ) ) ;
#54 = FACE_OUTER_BOUND ( 'NONE', #265, .T. ) ;
#55 = CLOSED_SHELL ( 'NONE', ( #1, #204, #104, #35, #139 ) ) ;
#56 = CARTESIAN_POINT ( 'NONE',  ( 1.319779946082704535E-13, -4.629164900776995227E-15, 37.79999999999999716 ) ) ;
#57 = CARTESIAN_POINT ( 'NONE',  ( 1.327773242369687095E-13, -0.8250000000000020650, 38.00000000000000000 ) ) ;
#58 = EDGE_LOOP ( 'NONE', ( #99, #114, #289, #82 ) ) ;
#59 = MANIFOLD_SOLID_BREP ( 'Corps-Déplacer/Copier1[1]', #197 ) ;
#60 = LINE ( 'NONE', #232, #278 ) ;
#61 = VECTOR ( 'NONE', #45, 1000.000000000000000 ) ;
#62 = PERSON_AND_ORGANIZATION ( #39, #121 ) ;
#63 = ORIENTED_EDGE ( 'NONE', *, *, #307, .F. ) ;
#64 = ORIENTED_EDGE ( 'NONE', *, *, #172, .F. ) ;
#65 = CARTESIAN_POINT ( 'NONE',  ( 2.275867276457584743E-15, 1.024999999999993028, 0.6158821345032522432 ) ) ;
#66 = CONICAL_SURFACE ( 'NONE', #77, 0.8249999999999974021, 0.7853981633974516097 ) ;
#67 = ORIENTED_EDGE ( 'NONE', *, *, #105, .F. ) ;
#68 = VERTEX_POINT ( 'NONE', #258 ) ;
#69 = CYLINDRICAL_SURFACE ( 'NONE', #329, 1.024999999999993472 ) ;
#70 = ORIENTED_EDGE ( 'NONE', *, *, #238, .T. ) ;
#71 = AXIS2_PLACEMENT_3D ( 'NONE', #325, #16, #173 ) ;
#72 = DIRECTION ( 'NONE',  ( -4.275831445896958607E-31, -1.000000000000000000, -1.224646799147353207E-16 ) ) ;
#73 =( NAMED_UNIT ( * ) PLANE_ANGLE_UNIT ( ) SI_UNIT ( $, .RADIAN. ) );
#74 = CARTESIAN_POINT ( 'NONE',  ( 1.326762908760390423E-13, 0.8249999999999927391, 38.00000000000000000 ) ) ;
#75 = APPROVAL_DATE_TIME ( #168, #193 ) ;
#76 = CC_DESIGN_PERSON_AND_ORGANIZATION_ASSIGNMENT ( #154, #254, ( #267 ) ) ;
#77 = AXIS2_PLACEMENT_3D ( 'NONE', #171, #150, #119 ) ;
#78 = CARTESIAN_POINT ( 'NONE',  ( 8.182618962584175302E-14, -1.025000000000002132, 37.79999999999999716 ) ) ;
#79 = APPLICATION_CONTEXT ( 'configuration controlled 3d designs of mechanical parts and assemblies' ) ;
#80 = AXIS2_PLACEMENT_3D ( 'NONE', #36, #116, #145 ) ;
#81 = LINE ( 'NONE', #65, #305 ) ;
#82 = ORIENTED_EDGE ( 'NONE', *, *, #31, .F. ) ;
#83 = EDGE_CURVE ( 'NONE', #113, #34, #181, .T. ) ;
#84 = DIRECTION ( 'NONE',  ( 0.0000000000000000000, 1.000000000000000000, 0.0000000000000000000 ) ) ;
#85 = CIRCLE ( 'NONE', #80, 0.8249999999999974021 ) ;
#86 = FACE_OUTER_BOUND ( 'NONE', #221, .T. ) ;
#87 = SHAPE_DEFINITION_REPRESENTATION ( #9, #184 ) ;
#88 = ORIENTED_EDGE ( 'NONE', *, *, #319, .F. ) ;
#89 = FACE_OUTER_BOUND ( 'NONE', #58, .T. ) ;
#90 = EDGE_CURVE ( 'NONE', #68, #264, #29, .T. ) ;
#91 = CARTESIAN_POINT ( 'NONE',  ( 3.142333204958820020E-14, 1.024999999999993028, 9.000000000000000000 ) ) ;
#92 = CIRCLE ( 'NONE', #12, 1.024999999999993916 ) ;
#93 = ORIENTED_EDGE ( 'NONE', *, *, #83, .T. ) ;
#94 = CALENDAR_DATE ( 2021, 3, 9 ) ;
#95 = VECTOR ( 'NONE', #296, 1000.000000000000000 ) ;
#96 = CIRCLE ( 'NONE', #182, 1.024999999999997469 ) ;
#97 = CARTESIAN_POINT ( 'NONE',  ( 3.142333204958820020E-14, -1.102182119232617714E-15, 9.000000000000000000 ) ) ;
#98 = ADVANCED_FACE ( 'NONE', ( #328 ), #255, .T. ) ;
#99 = ORIENTED_EDGE ( 'NONE', *, *, #105, .T. ) ;
#100 = ORIENTED_EDGE ( 'NONE', *, *, #50, .T. ) ;
#101 = CARTESIAN_POINT ( 'NONE',  ( 0.0000000000000000000, 0.0000000000000000000, 0.0000000000000000000 ) ) ;
#102 = ORIENTED_EDGE ( 'NONE', *, *, #164, .F. ) ;
#103 = DIRECTION ( 'NONE',  ( 0.0000000000000000000, 1.000000000000000000, 0.0000000000000000000 ) ) ;
#104 = ADVANCED_FACE ( 'NONE', ( #163 ), #205, .T. ) ;
#105 = EDGE_CURVE ( 'NONE', #253, #44, #96, .T. ) ;
#106 = DATE_AND_TIME ( #10, #191 ) ;
#107 = CIRCLE ( 'NONE', #129, 1.024999999999993916 ) ;
#108 = APPLICATION_PROTOCOL_DEFINITION ( 'international standard', 'config_control_design', 1994, #79 ) ;
#109 = ADVANCED_FACE ( 'NONE', ( #158 ), #243, .T. ) ;
#110 = DIRECTION ( 'NONE',  ( 1.798245827342160711E-15, -0.8571673007021097801, 0.5150380749100583744 ) ) ;
#111 = EDGE_LOOP ( 'NONE', ( #149, #179, #67, #102 ) ) ;
#112 = PERSON_AND_ORGANIZATION_ROLE ( 'classification_officer' ) ;
#113 = VERTEX_POINT ( 'NONE', #225 ) ;
#114 = ORIENTED_EDGE ( 'NONE', *, *, #124, .T. ) ;
#115 = LOCAL_TIME ( 9, 22, 4.000000000000000000, #136 ) ;
#116 = DIRECTION ( 'NONE',  ( -3.491481338843133355E-15, 1.224646799147353207E-16, -1.000000000000000000 ) ) ;
#117 = ADVANCED_FACE ( 'NONE', ( #3 ), #226, .F. ) ;
#118 = PERSON_AND_ORGANIZATION ( #39, #121 ) ;
#119 = DIRECTION ( 'NONE',  ( 0.0000000000000000000, 1.000000000000000000, 0.0000000000000000000 ) ) ;
#120 = AXIS2_PLACEMENT_3D ( 'NONE', #252, #178, #220 ) ;
#121 = ORGANIZATION ( 'UNSPECIFIED', 'UNSPECIFIED', '' ) ;
#122 = ORIENTED_EDGE ( 'NONE', *, *, #164, .T. ) ;
#123 = CARTESIAN_POINT ( 'NONE',  ( 1.326762908760390423E-13, -4.653657836759941941E-15, 38.00000000000000000 ) ) ;
#124 = EDGE_CURVE ( 'NONE', #44, #113, #60, .T. ) ;
#125 = DIRECTION ( 'NONE',  ( 0.0000000000000000000, 1.000000000000000000, 0.0000000000000000000 ) ) ;
#126 = UNCERTAINTY_MEASURE_WITH_UNIT (LENGTH_MEASURE( 1.000000000000000082E-05 ), #251, 'distance_accuracy_value', 'NONE');
#127 = DIRECTION ( 'NONE',  ( 0.0000000000000000000, 1.000000000000000000, 0.0000000000000000000 ) ) ;
#128 = DIRECTION ( 'NONE',  ( -3.491481338843133355E-15, 1.224646799147353207E-16, -1.000000000000000000 ) ) ;
#129 = AXIS2_PLACEMENT_3D ( 'NONE', #97, #277, #151 ) ;
#130 = CARTESIAN_POINT ( 'NONE',  ( 3.142333204958820020E-14, -1.102182119232617714E-15, 9.000000000000000000 ) ) ;
#131 = CARTESIAN_POINT ( 'NONE',  ( 1.326762908760390423E-13, -4.653657836759941941E-15, 38.00000000000000000 ) ) ;
#132 = PERSON_AND_ORGANIZATION_ROLE ( 'design_owner' ) ;
#133 = AXIS2_PLACEMENT_3D ( 'NONE', #217, #301, #72 ) ;
#134 = EDGE_CURVE ( 'NONE', #256, #264, #81, .T. ) ;
#135 = DIRECTION ( 'NONE',  ( -3.491481338843133355E-15, 1.224646799147353207E-16, -1.000000000000000000 ) ) ;
#136 = COORDINATED_UNIVERSAL_TIME_OFFSET ( 1, 0, .AHEAD. ) ;
#137 = CARTESIAN_POINT ( 'NONE',  ( 0.0000000000000000000, 0.0000000000000000000, 0.0000000000000000000 ) ) ;
#138 = CALENDAR_DATE ( 2021, 3, 9 ) ;
#139 = ADVANCED_FACE ( 'NONE', ( #240 ), #37, .T. ) ;
#140 = AXIS2_PLACEMENT_3D ( 'NONE', #156, #302, #175 ) ;
#141 = DIRECTION ( 'NONE',  ( -3.491481338843133355E-15, 1.224646799147353207E-16, -1.000000000000000000 ) ) ;
#142 = AXIS2_PLACEMENT_3D ( 'NONE', #51, #153, #333 ) ;
#143 = ORIENTED_EDGE ( 'NONE', *, *, #50, .F. ) ;
#144 = VERTEX_POINT ( 'NONE', #174 ) ;
#145 = DIRECTION ( 'NONE',  ( 0.0000000000000000000, 1.000000000000000000, 0.0000000000000000000 ) ) ;
#146 = CARTESIAN_POINT ( 'NONE',  ( 4.382727232044364661E-31, 1.024999999999995692, 1.255262969126031669E-16 ) ) ;
#147 = APPROVAL ( #292, 'UNSPECIFIED' ) ;
#148 = AXIS2_PLACEMENT_3D ( 'NONE', #123, #275, #198 ) ;
#149 = ORIENTED_EDGE ( 'NONE', *, *, #319, .T. ) ;
#150 = DIRECTION ( 'NONE',  ( -3.491481338843133355E-15, 1.224646799147353207E-16, -1.000000000000000000 ) ) ;
#151 = DIRECTION ( 'NONE',  ( 0.0000000000000000000, 1.000000000000000000, 0.0000000000000000000 ) ) ;
#152 = SECURITY_CLASSIFICATION ( '', '', #294 ) ;
#153 = DIRECTION ( 'NONE',  ( 3.491481338843133355E-15, -1.224646799147353207E-16, 1.000000000000000000 ) ) ;
#154 = PERSON_AND_ORGANIZATION ( #39, #121 ) ;
#155 = PLANE ( 'NONE',  #133 ) ;
#156 = CARTESIAN_POINT ( 'NONE',  ( 2.150340979544981452E-15, -7.542380846714474494E-17, 0.6158821345032521322 ) ) ;
#157 = PERSON_AND_ORGANIZATION ( #39, #121 ) ;
#158 = FACE_OUTER_BOUND ( 'NONE', #111, .T. ) ;
#159 = EDGE_LOOP ( 'NONE', ( #88, #187 ) ) ;
#160 = ADVANCED_FACE ( 'NONE', ( #54 ), #155, .F. ) ;
#161 = VECTOR ( 'NONE', #245, 1000.000000000000114 ) ;
#162 = CIRCLE ( 'NONE', #230, 1.024999999999993916 ) ;
#163 = FACE_OUTER_BOUND ( 'NONE', #246, .T. ) ;
#164 = EDGE_CURVE ( 'NONE', #144, #253, #46, .T. ) ;
#165 = APPROVAL_PERSON_ORGANIZATION ( #157, #11, #189 ) ;
#166 = ORIENTED_EDGE ( 'NONE', *, *, #134, .F. ) ;
#167 = EDGE_LOOP ( 'NONE', ( #63, #274, #100 ) ) ;
#168 = DATE_AND_TIME ( #303, #49 ) ;
#169 = CARTESIAN_POINT ( 'NONE',  ( 1.324404225710758734E-13, -0.8250000000000020650, 38.00000000000000000 ) ) ;
#170 = APPROVAL_PERSON_ORGANIZATION ( #236, #147, #192 ) ;
#171 = CARTESIAN_POINT ( 'NONE',  ( 1.326762908760390423E-13, -4.653657836759941941E-15, 38.00000000000000000 ) ) ;
#172 = EDGE_CURVE ( 'NONE', #241, #260, #162, .T. ) ;
#173 = DIRECTION ( 'NONE',  ( -4.275831445896958607E-31, -1.000000000000000000, -1.224646799147353207E-16 ) ) ;
#174 = CARTESIAN_POINT ( 'NONE',  ( 1.326762908760390423E-13, 0.8249999999999927391, 38.00000000000000000 ) ) ;
#175 = DIRECTION ( 'NONE',  ( 3.757912086609266141E-31, 1.000000000000000000, 1.057758217059035880E-16 ) ) ;
#176 = AXIS2_PLACEMENT_3D ( 'NONE', #280, #14, #199 ) ;
#177 = AXIS2_PLACEMENT_3D ( 'NONE', #293, #239, #242 ) ;
#178 = DIRECTION ( 'NONE',  ( -3.491481338843133355E-15, 1.224646799147353207E-16, -1.000000000000000000 ) ) ;
#179 = ORIENTED_EDGE ( 'NONE', *, *, #19, .T. ) ;
#180 = DIRECTION ( 'NONE',  ( 3.491481338843133355E-15, -1.224646799147353207E-16, 1.000000000000000000 ) ) ;
#181 = CIRCLE ( 'NONE', #48, 1.024999999999993916 ) ;
#182 = AXIS2_PLACEMENT_3D ( 'NONE', #56, #135, #228 ) ;
#183 = ADVANCED_FACE ( 'NONE', ( #222 ), #66, .T. ) ;
#184 = ADVANCED_BREP_SHAPE_REPRESENTATION ( '39575', ( #59, #276, #315 ), #40 ) ;
#185 = ORIENTED_EDGE ( 'NONE', *, *, #307, .T. ) ;
#186 = CYLINDRICAL_SURFACE ( 'NONE', #229, 1.024999999999993472 ) ;
#187 = ORIENTED_EDGE ( 'NONE', *, *, #244, .F. ) ;
#188 = CARTESIAN_POINT ( 'NONE',  ( 3.142333204958820020E-14, 1.024999999999993028, 9.000000000000000000 ) ) ;
#189 = APPROVAL_ROLE ( '' ) ;
#190 = PERSON_AND_ORGANIZATION_ROLE ( 'design_supplier' ) ;
#191 = LOCAL_TIME ( 9, 22, 4.000000000000000000, #233 ) ;
#192 = APPROVAL_ROLE ( '' ) ;
#193 = APPROVAL ( #250, 'UNSPECIFIED' ) ;
#194 = LINE ( 'NONE', #28, #268 ) ;
#195 = DATE_TIME_ROLE ( 'creation_date' ) ;
#196 = EDGE_CURVE ( 'NONE', #260, #241, #107, .T. ) ;
#197 = CLOSED_SHELL ( 'NONE', ( #109, #299, #160, #98, #183, #117 ) ) ;
#198 = DIRECTION ( 'NONE',  ( 0.0000000000000000000, 1.000000000000000000, 0.0000000000000000000 ) ) ;
#199 = DIRECTION ( 'NONE',  ( 4.275831445896959482E-31, 1.000000000000000000, 1.224646799147353207E-16 ) ) ;
#200 = CC_DESIGN_SECURITY_CLASSIFICATION ( #152, ( #300 ) ) ;
#201 = PRODUCT_RELATED_PRODUCT_CATEGORY ( 'detail', '', ( #5 ) ) ;
#202 = LINE ( 'NONE', #227, #323 ) ;
#203 = DIRECTION ( 'NONE',  ( 0.0000000000000000000, 0.0000000000000000000, 1.000000000000000000 ) ) ;
#204 = ADVANCED_FACE ( 'NONE', ( #248 ), #332, .T. ) ;
#205 = CONICAL_SURFACE ( 'NONE', #215, 1.024999999999993028, 1.029744258676649427 ) ;
#206 = CALENDAR_DATE ( 2021, 3, 9 ) ;
#207 = ORIENTED_EDGE ( 'NONE', *, *, #196, .F. ) ;
#208 = DIRECTION ( 'NONE',  ( -3.491481338843133355E-15, 1.224646799147353207E-16, -1.000000000000000000 ) ) ;
#209 = ORIENTED_EDGE ( 'NONE', *, *, #90, .T. ) ;
#210 = ORIENTED_EDGE ( 'NONE', *, *, #290, .F. ) ;
#211 = CIRCLE ( 'NONE', #148, 0.8249999999999974021 ) ;
#212 = LINE ( 'NONE', #57, #235 ) ;
#213 = LINE ( 'NONE', #320, #61 ) ;
#214 = COORDINATED_UNIVERSAL_TIME_OFFSET ( 1, 0, .AHEAD. ) ;
#215 = AXIS2_PLACEMENT_3D ( 'NONE', #336, #180, #309 ) ;
#216 = CARTESIAN_POINT ( 'NONE',  ( 0.0000000000000000000, 0.0000000000000000000, 0.0000000000000000000 ) ) ;
#217 = CARTESIAN_POINT ( 'NONE',  ( 3.142333204958820020E-14, 7.686268886141957291E-33, 9.000000000000000000 ) ) ;
#218 = AXIS2_PLACEMENT_3D ( 'NONE', #24, #285, #23 ) ;
#219 = EDGE_CURVE ( 'NONE', #241, #68, #202, .T. ) ;
#220 = DIRECTION ( 'NONE',  ( 3.757912086609266141E-31, 1.000000000000000000, 1.057758217059035880E-16 ) ) ;
#221 = EDGE_LOOP ( 'NONE', ( #313, #52, #143, #271 ) ) ;
#222 = FACE_OUTER_BOUND ( 'NONE', #322, .T. ) ;
#223 = LOCAL_TIME ( 9, 22, 4.000000000000000000, #18 ) ;
#224 = ORIENTED_EDGE ( 'NONE', *, *, #172, .T. ) ;
#225 = CARTESIAN_POINT ( 'NONE',  ( 8.182618962584187923E-14, -1.024999999999995026, 9.000000000000000000 ) ) ;
#226 = PLANE ( 'NONE',  #218 ) ;
#227 = CARTESIAN_POINT ( 'NONE',  ( 1.255262969126024520E-16, -1.024999999999993472, -1.255262969126033149E-16 ) ) ;
#228 = DIRECTION ( 'NONE',  ( 0.0000000000000000000, 1.000000000000000000, 0.0000000000000000000 ) ) ;
#229 = AXIS2_PLACEMENT_3D ( 'NONE', #137, #283, #22 ) ;
#230 = AXIS2_PLACEMENT_3D ( 'NONE', #13, #128, #127 ) ;
#231 = DIRECTION ( 'NONE',  ( -3.491481338843133355E-15, 1.224646799147353207E-16, -1.000000000000000000 ) ) ;
#232 = CARTESIAN_POINT ( 'NONE',  ( 1.255262969126027479E-16, -1.024999999999995692, -1.255262969126036107E-16 ) ) ;
#233 = COORDINATED_UNIVERSAL_TIME_OFFSET ( 1, 0, .AHEAD. ) ;
#234 = CYLINDRICAL_SURFACE ( 'NONE', #177, 1.024999999999995692 ) ;
#235 = VECTOR ( 'NONE', #291, 1000.000000000000114 ) ;
#236 = PERSON_AND_ORGANIZATION ( #39, #121 ) ;
#237 = ORIENTED_EDGE ( 'NONE', *, *, #311, .T. ) ;
#238 = EDGE_CURVE ( 'NONE', #34, #113, #92, .T. ) ;
#239 = DIRECTION ( 'NONE',  ( -3.491481338843133355E-15, 1.224646799147353207E-16, -1.000000000000000000 ) ) ;
#240 = FACE_OUTER_BOUND ( 'NONE', #8, .T. ) ;
#241 = VERTEX_POINT ( 'NONE', #257 ) ;
#242 = DIRECTION ( 'NONE',  ( 4.275831445896959482E-31, 1.000000000000000000, 1.224646799147353207E-16 ) ) ;
#243 = CONICAL_SURFACE ( 'NONE', #287, 0.8249999999999974021, 0.7853981633974516097 ) ;
#244 = EDGE_CURVE ( 'NONE', #312, #144, #85, .T. ) ;
#245 = DIRECTION ( 'NONE',  ( -2.468850131082256666E-15, 0.7071067811865500152, -0.7071067811865451302 ) ) ;
#246 = EDGE_LOOP ( 'NONE', ( #166, #185, #209 ) ) ;
#247 = APPLICATION_CONTEXT ( 'configuration controlled 3d designs of mechanical parts and assemblies' ) ;
#248 = FACE_OUTER_BOUND ( 'NONE', #167, .T. ) ;
#249 = ORIENTED_EDGE ( 'NONE', *, *, #244, .T. ) ;
#250 = APPROVAL_STATUS ( 'not_yet_approved' ) ;
#251 =( LENGTH_UNIT ( ) NAMED_UNIT ( * ) SI_UNIT ( .MILLI., .METRE. ) );
#252 = CARTESIAN_POINT ( 'NONE',  ( 2.150340979544981452E-15, -7.542380846714474494E-17, 0.6158821345032521322 ) ) ;
#253 = VERTEX_POINT ( 'NONE', #269 ) ;
#254 = PERSON_AND_ORGANIZATION_ROLE ( 'creator' ) ;
#255 = CYLINDRICAL_SURFACE ( 'NONE', #176, 1.024999999999995692 ) ;
#256 = VERTEX_POINT ( 'NONE', #216 ) ;
#257 = CARTESIAN_POINT ( 'NONE',  ( 1.691236281147917380E-14, -1.024999999999995026, 9.000000000000000000 ) ) ;
#258 = CARTESIAN_POINT ( 'NONE',  ( 2.150340979544981058E-15, -1.024999999999993028, 0.6158821345032520211 ) ) ;
#259 = DIRECTION ( 'NONE',  ( -3.491481338843133355E-15, 1.224646799147353207E-16, -1.000000000000000000 ) ) ;
#260 = VERTEX_POINT ( 'NONE', #188 ) ;
#261 = MECHANICAL_CONTEXT ( 'NONE', #247, 'mechanical' ) ;
#262 = CC_DESIGN_PERSON_AND_ORGANIZATION_ASSIGNMENT ( #288, #7, ( #300 ) ) ;
#263 = APPROVAL_STATUS ( 'not_yet_approved' ) ;
#264 = VERTEX_POINT ( 'NONE', #324 ) ;
#265 = EDGE_LOOP ( 'NONE', ( #70, #93 ) ) ;
#266 = DATE_AND_TIME ( #206, #115 ) ;
#267 = PRODUCT_DEFINITION ( 'UNKNOWN', '', #300, #306 ) ;
#268 = VECTOR ( 'NONE', #110, 1000.000000000000000 ) ;
#269 = CARTESIAN_POINT ( 'NONE',  ( 1.319779946082704535E-13, 1.024999999999993028, 37.79999999999999716 ) ) ;
#270 = AXIS2_PLACEMENT_3D ( 'NONE', #32, #141, #84 ) ;
#271 = ORIENTED_EDGE ( 'NONE', *, *, #311, .F. ) ;
#272 = DIRECTION ( 'NONE',  ( -3.491481338843133355E-15, 1.224646799147353207E-16, -1.000000000000000000 ) ) ;
#273 = ORIENTED_EDGE ( 'NONE', *, *, #83, .F. ) ;
#274 = ORIENTED_EDGE ( 'NONE', *, *, #134, .T. ) ;
#275 = DIRECTION ( 'NONE',  ( -3.491481338843133355E-15, 1.224646799147353207E-16, -1.000000000000000000 ) ) ;
#276 = MANIFOLD_SOLID_BREP ( 'Corps-Déplacer/Copier1[2]', #55 ) ;
#277 = DIRECTION ( 'NONE',  ( -3.491481338843133355E-15, 1.224646799147353207E-16, -1.000000000000000000 ) ) ;
#278 = VECTOR ( 'NONE', #6, 1000.000000000000000 ) ;
#279 = ORIENTED_EDGE ( 'NONE', *, *, #90, .F. ) ;
#280 = CARTESIAN_POINT ( 'NONE',  ( 0.0000000000000000000, 0.0000000000000000000, 0.0000000000000000000 ) ) ;
#281 = EDGE_LOOP ( 'NONE', ( #27, #224, #237, #279 ) ) ;
#282 = CIRCLE ( 'NONE', #270, 1.024999999999997469 ) ;
#283 = DIRECTION ( 'NONE',  ( -3.491481338843133355E-15, 1.224646799147353207E-16, -1.000000000000000000 ) ) ;
#284 = PERSON_AND_ORGANIZATION ( #39, #121 ) ;
#285 = DIRECTION ( 'NONE',  ( -3.491481338843133355E-15, 1.224646799147353207E-16, -1.000000000000000000 ) ) ;
#286 = CC_DESIGN_PERSON_AND_ORGANIZATION_ASSIGNMENT ( #30, #190, ( #300 ) ) ;
#287 = AXIS2_PLACEMENT_3D ( 'NONE', #131, #259, #103 ) ;
#288 = PERSON_AND_ORGANIZATION ( #39, #121 ) ;
#289 = ORIENTED_EDGE ( 'NONE', *, *, #238, .F. ) ;
#290 = EDGE_CURVE ( 'NONE', #44, #253, #282, .T. ) ;
#291 = DIRECTION ( 'NONE',  ( -2.382254525458707609E-15, -0.7071067811865497932, -0.7071067811865453523 ) ) ;
#292 = APPROVAL_STATUS ( 'not_yet_approved' ) ;
#293 = CARTESIAN_POINT ( 'NONE',  ( 0.0000000000000000000, 0.0000000000000000000, 0.0000000000000000000 ) ) ;
#294 = SECURITY_CLASSIFICATION_LEVEL ( 'unclassified' ) ;
#295 = CC_DESIGN_APPROVAL ( #193, ( #267 ) ) ;
#296 = DIRECTION ( 'NONE',  ( -3.491481338843133355E-15, 1.224646799147353207E-16, -1.000000000000000000 ) ) ;
#297 = DATE_TIME_ROLE ( 'classification_date' ) ;
#298 = DATE_AND_TIME ( #94, #223 ) ;
#299 = ADVANCED_FACE ( 'NONE', ( #89 ), #234, .T. ) ;
#300 = PRODUCT_DEFINITION_FORMATION_WITH_SPECIFIED_SOURCE ( 'ANY', '', #5, .NOT_KNOWN. ) ;
#301 = DIRECTION ( 'NONE',  ( 3.491481338843133355E-15, -1.224646799147353207E-16, 1.000000000000000000 ) ) ;
#302 = DIRECTION ( 'NONE',  ( -3.491481338843133355E-15, 1.224646799147353207E-16, -1.000000000000000000 ) ) ;
#303 = CALENDAR_DATE ( 2021, 3, 9 ) ;
#304 = CC_DESIGN_APPROVAL ( #147, ( #152 ) ) ;
#305 = VECTOR ( 'NONE', #327, 1000.000000000000114 ) ;
#306 = DESIGN_CONTEXT ( 'detailed design', #79, 'design' ) ;
#307 = EDGE_CURVE ( 'NONE', #256, #68, #194, .T. ) ;
#308 = DIRECTION ( 'NONE',  ( 1.000000000000000000, 0.0000000000000000000, 0.0000000000000000000 ) ) ;
#309 = DIRECTION ( 'NONE',  ( -3.757912086609266141E-31, -1.000000000000000000, -1.057758217059035880E-16 ) ) ;
#310 = APPROVAL_PERSON_ORGANIZATION ( #118, #193, #41 ) ;
#311 = EDGE_CURVE ( 'NONE', #260, #264, #213, .T. ) ;
#312 = VERTEX_POINT ( 'NONE', #169 ) ;
#313 = ORIENTED_EDGE ( 'NONE', *, *, #196, .T. ) ;
#314 = DIRECTION ( 'NONE',  ( 0.0000000000000000000, 1.000000000000000000, 0.0000000000000000000 ) ) ;
#315 = AXIS2_PLACEMENT_3D ( 'NONE', #101, #203, #308 ) ;
#316 = ORIENTED_EDGE ( 'NONE', *, *, #31, .T. ) ;
#317 = APPROVAL_DATE_TIME ( #106, #147 ) ;
#318 = EDGE_LOOP ( 'NONE', ( #335, #337, #316, #273 ) ) ;
#319 = EDGE_CURVE ( 'NONE', #144, #312, #211, .T. ) ;
#320 = CARTESIAN_POINT ( 'NONE',  ( 4.382727232044354152E-31, 1.024999999999993472, 1.255262969126028958E-16 ) ) ;
#321 = APPROVAL_DATE_TIME ( #266, #11 ) ;
#322 = EDGE_LOOP ( 'NONE', ( #26, #249, #122, #210 ) ) ;
#323 = VECTOR ( 'NONE', #231, 1000.000000000000000 ) ;
#324 = CARTESIAN_POINT ( 'NONE',  ( 2.275867276457584743E-15, 1.024999999999993028, 0.6158821345032522432 ) ) ;
#325 = CARTESIAN_POINT ( 'NONE',  ( 3.142333204958820020E-14, 7.686268886141957291E-33, 9.000000000000000000 ) ) ;
#326 = CC_DESIGN_DATE_AND_TIME_ASSIGNMENT ( #25, #297, ( #152 ) ) ;
#327 = DIRECTION ( 'NONE',  ( 1.903218546456023111E-15, 0.8571673007021096691, 0.5150380749100587074 ) ) ;
#328 = FACE_OUTER_BOUND ( 'NONE', #318, .T. ) ;
#329 = AXIS2_PLACEMENT_3D ( 'NONE', #47, #272, #334 ) ;
#330 = CC_DESIGN_PERSON_AND_ORGANIZATION_ASSIGNMENT ( #284, #132, ( #5 ) ) ;
#331 = APPLICATION_PROTOCOL_DEFINITION ( 'international standard', 'config_control_design', 1994, #247 ) ;
#332 = CONICAL_SURFACE ( 'NONE', #142, 1.024999999999993028, 1.029744258676649427 ) ;
#333 = DIRECTION ( 'NONE',  ( -3.757912086609266141E-31, -1.000000000000000000, -1.057758217059035880E-16 ) ) ;
#334 = DIRECTION ( 'NONE',  ( 4.275831445896957731E-31, 1.000000000000000000, 1.224646799147353207E-16 ) ) ;
#335 = ORIENTED_EDGE ( 'NONE', *, *, #124, .F. ) ;
#336 = CARTESIAN_POINT ( 'NONE',  ( 2.150340979544981452E-15, -7.542380846714474494E-17, 0.6158821345032521322 ) ) ;
#337 = ORIENTED_EDGE ( 'NONE', *, *, #290, .T. ) ;
ENDSEC;
END-ISO-10303-21;
