ISO-10303-21;
HEADER;
FILE_DESCRIPTION (( 'STEP AP203' ),
    '1' );
FILE_NAME ('39394.step',
    '2021-10-13T11:35:43',
    ( '' ),
    ( '' ),
    'SwSTEP 2.0',
    'SolidWorks 2019',
    '' );
FILE_SCHEMA (( 'CONFIG_CONTROL_DESIGN' ));
ENDSEC;

DATA;
#1 = ORIENTED_EDGE ( 'NONE', *, *, #77, .F. ) ;
#2 = DIRECTION ( 'NONE',  ( 1.510825004591027855E-30, 1.000000000000000000, 4.327174794786742882E-16 ) ) ;
#3 = AXIS2_PLACEMENT_3D ( 'NONE', #225, #127, #105 ) ;
#4 = EDGE_LOOP ( 'NONE', ( #18 ) ) ;
#5 = FACE_OUTER_BOUND ( 'NONE', #236, .T. ) ;
#6 = PRODUCT_RELATED_PRODUCT_CATEGORY ( 'detail', '', ( #143 ) ) ;
#7 = CARTESIAN_POINT ( 'NONE',  ( 1.187103655206665341E-13, 3.249999999999995559, 34.00000000000000000 ) ) ;
#8 = DIRECTION ( 'NONE',  ( 4.275831445896958607E-31, 1.000000000000000000, 1.224646799147353207E-16 ) ) ;
#9 = CARTESIAN_POINT ( 'NONE',  ( 2.758270257686075477E-13, -9.674709713264090904E-15, 79.00000000000000000 ) ) ;
#10 = EDGE_CURVE ( 'NONE', #69, #69, #21, .T. ) ;
#11 = CARTESIAN_POINT ( 'NONE',  ( 5.083181123339292873E-15, -1.782939929516087970E-16, 1.455880937064825575 ) ) ;
#12 = PERSON_AND_ORGANIZATION ( #24, #54 ) ;
#13 = APPROVAL_PERSON_ORGANIZATION ( #216, #155, #39 ) ;
#14 = DIRECTION ( 'NONE',  ( 1.000000000000000000, 0.0000000000000000000, 0.0000000000000000000 ) ) ;
#15 = DATE_AND_TIME ( #56, #205 ) ;
#16 = PERSON_AND_ORGANIZATION ( #24, #54 ) ;
#17 = CALENDAR_DATE ( 2021, 13, 10 ) ;
#18 = ORIENTED_EDGE ( 'NONE', *, *, #126, .T. ) ;
#19 = DIRECTION ( 'NONE',  ( -4.275831445896958607E-31, -1.000000000000000000, -1.224646799147353207E-16 ) ) ;
#20 = ORIENTED_EDGE ( 'NONE', *, *, #10, .F. ) ;
#21 = CIRCLE ( 'NONE', #45, 3.383974596215573172 ) ;
#22 = LOCAL_TIME ( 13, 35, 43.00000000000000000, #60 ) ;
#23 = MANIFOLD_SOLID_BREP ( 'Corps-Déplacer/Copier1[1]', #157 ) ;
#24 = PERSON ( 'UNSPECIFIED', 'UNSPECIFIED', 'UNSPECIFIED', ('UNSPECIFIED'), ('UNSPECIFIED'), ('UNSPECIFIED') ) ;
#25 = ADVANCED_FACE ( 'NONE', ( #263 ), #190, .F. ) ;
#26 = DIRECTION ( 'NONE',  ( 0.0000000000000000000, -1.000000000000000000, 0.0000000000000000000 ) ) ;
#27 = ORIENTED_EDGE ( 'NONE', *, *, #242, .F. ) ;
#28 = CARTESIAN_POINT ( 'NONE',  ( 1.187103655206665341E-13, -1.474514954580286030E-14, 34.00000000000000000 ) ) ;
#29 = AXIS2_PLACEMENT_3D ( 'NONE', #104, #241, #63 ) ;
#30 = AXIS2_PLACEMENT_3D ( 'NONE', #131, #110, #90 ) ;
#31 = CC_DESIGN_PERSON_AND_ORGANIZATION_ASSIGNMENT ( #97, #160, ( #143 ) ) ;
#32 = CARTESIAN_POINT ( 'NONE',  ( 2.758270257686075477E-13, 2.399615652258959309E-32, 79.00000000000000000 ) ) ;
#33 = AXIS2_PLACEMENT_3D ( 'NONE', #145, #83, #82 ) ;
#34 = ADVANCED_FACE ( 'NONE', ( #243 ), #80, .T. ) ;
#35 = VERTEX_POINT ( 'NONE', #153 ) ;
#36 = MECHANICAL_CONTEXT ( 'NONE', #71, 'mechanical' ) ;
#37 = APPROVAL_PERSON_ORGANIZATION ( #180, #209, #75 ) ;
#38 = APPROVAL_DATE_TIME ( #122, #155 ) ;
#39 = APPROVAL_ROLE ( '' ) ;
#40 = CC_DESIGN_DATE_AND_TIME_ASSIGNMENT ( #252, #123, ( #46 ) ) ;
#41 = CONICAL_SURFACE ( 'NONE', #191, 3.200000000000001954, 0.7853981633974426169 ) ;
#42 = EDGE_LOOP ( 'NONE', ( #96 ) ) ;
#43 = CYLINDRICAL_SURFACE ( 'NONE', #258, 3.250000000000004885 ) ;
#44 = FACE_OUTER_BOUND ( 'NONE', #166, .T. ) ;
#45 = AXIS2_PLACEMENT_3D ( 'NONE', #66, #247, #187 ) ;
#46 = SECURITY_CLASSIFICATION ( '', '', #219 ) ;
#47 = ORIENTED_EDGE ( 'NONE', *, *, #134, .T. ) ;
#48 = FACE_OUTER_BOUND ( 'NONE', #185, .T. ) ;
#49 =( LENGTH_UNIT ( ) NAMED_UNIT ( * ) SI_UNIT ( .MILLI., .METRE. ) );
#50 = CC_DESIGN_DATE_AND_TIME_ASSIGNMENT ( #15, #182, ( #226 ) ) ;
#51 = CC_DESIGN_APPROVAL ( #262, ( #172 ) ) ;
#52 = DIRECTION ( 'NONE',  ( -4.740750632337804122E-31, -1.000000000000000000, -1.334402673828311121E-16 ) ) ;
#53 = CARTESIAN_POINT ( 'NONE',  ( 2.758270257686075477E-13, 3.199999999999992184, 79.00000000000000000 ) ) ;
#54 = ORGANIZATION ( 'UNSPECIFIED', 'UNSPECIFIED', '' ) ;
#55 = CARTESIAN_POINT ( 'NONE',  ( 1.204561061900881197E-13, 3.383974596215558517, 34.50000000000000000 ) ) ;
#56 = CALENDAR_DATE ( 2021, 13, 10 ) ;
#57 = ORIENTED_EDGE ( 'NONE', *, *, #242, .T. ) ;
#58 = CC_DESIGN_PERSON_AND_ORGANIZATION_ASSIGNMENT ( #234, #259, ( #172 ) ) ;
#59 = CIRCLE ( 'NONE', #94, 3.250000000000004885 ) ;
#60 = COORDINATED_UNIVERSAL_TIME_OFFSET ( 1, 0, .AHEAD. ) ;
#61 = EDGE_LOOP ( 'NONE', ( #27 ) ) ;
#62 = APPROVAL_PERSON_ORGANIZATION ( #12, #262, #214 ) ;
#63 = DIRECTION ( 'NONE',  ( 0.0000000000000000000, -1.000000000000000000, 0.0000000000000000000 ) ) ;
#64 = FACE_BOUND ( 'NONE', #179, .T. ) ;
#65 = ORIENTED_EDGE ( 'NONE', *, *, #10, .T. ) ;
#66 = CARTESIAN_POINT ( 'NONE',  ( 1.204561061900881197E-13, -1.492875304201426452E-14, 34.50000000000000000 ) ) ;
#67 = CC_DESIGN_PERSON_AND_ORGANIZATION_ASSIGNMENT ( #239, #240, ( #172 ) ) ;
#68 = VERTEX_POINT ( 'NONE', #88 ) ;
#69 = VERTEX_POINT ( 'NONE', #55 ) ;
#70 = DIRECTION ( 'NONE',  ( 4.275831445896958607E-31, 1.000000000000000000, 1.224646799147353207E-16 ) ) ;
#71 = APPLICATION_CONTEXT ( 'configuration controlled 3d designs of mechanical parts and assemblies' ) ;
#72 = APPROVAL_DATE_TIME ( #178, #209 ) ;
#73 = DIRECTION ( 'NONE',  ( 0.0000000000000000000, 0.0000000000000000000, 1.000000000000000000 ) ) ;
#74 = ADVANCED_FACE ( 'NONE', ( #170, #44 ), #43, .T. ) ;
#75 = APPROVAL_ROLE ( '' ) ;
#76 = ORIENTED_EDGE ( 'NONE', *, *, #117, .F. ) ;
#77 = EDGE_CURVE ( 'NONE', #133, #133, #223, .T. ) ;
#78 = PRODUCT_DEFINITION_SHAPE ( 'NONE', 'NONE',  #226 ) ;
#79 = EDGE_LOOP ( 'NONE', ( #165 ) ) ;
#80 = PLANE ( 'NONE',  #245 ) ;
#81 = CC_DESIGN_APPROVAL ( #209, ( #46 ) ) ;
#82 = DIRECTION ( 'NONE',  ( 0.0000000000000000000, 1.000000000000000000, 0.0000000000000000000 ) ) ;
#83 = DIRECTION ( 'NONE',  ( -3.491481338843133355E-15, 1.224646799147353207E-16, -1.000000000000000000 ) ) ;
#84 = CARTESIAN_POINT ( 'NONE',  ( 8.379555213223520053E-14, -1.038521950748818292E-14, 24.00000000000000000 ) ) ;
#85 = AXIS2_PLACEMENT_3D ( 'NONE', #84, #168, #207 ) ;
#86 = CC_DESIGN_PERSON_AND_ORGANIZATION_ASSIGNMENT ( #16, #201, ( #46 ) ) ;
#87 = VERTEX_POINT ( 'NONE', #210 ) ;
#88 = CARTESIAN_POINT ( 'NONE',  ( 1.241814724302139603E-13, -4.000000000000014211, 35.56698729810775461 ) ) ;
#89 = CONICAL_SURFACE ( 'NONE', #130, 3.999999999999992450, 1.221730476396026610 ) ;
#90 = DIRECTION ( 'NONE',  ( 1.510825004591027855E-30, 1.000000000000000000, 4.327174794786742882E-16 ) ) ;
#91 = DIRECTION ( 'NONE',  ( -3.491481338843133355E-15, 1.224646799147353207E-16, -1.000000000000000000 ) ) ;
#92 = VERTEX_POINT ( 'NONE', #176 ) ;
#93 = ADVANCED_FACE ( 'NONE', ( #164, #48 ), #167, .F. ) ;
#94 = AXIS2_PLACEMENT_3D ( 'NONE', #213, #91, #52 ) ;
#95 = COORDINATED_UNIVERSAL_TIME_OFFSET ( 1, 0, .AHEAD. ) ;
#96 = ORIENTED_EDGE ( 'NONE', *, *, #99, .F. ) ;
#97 = PERSON_AND_ORGANIZATION ( #24, #54 ) ;
#98 = CALENDAR_DATE ( 2021, 13, 10 ) ;
#99 = EDGE_CURVE ( 'NONE', #35, #35, #141, .T. ) ;
#100 = COORDINATED_UNIVERSAL_TIME_OFFSET ( 1, 0, .AHEAD. ) ;
#101 = EDGE_LOOP ( 'NONE', ( #76 ) ) ;
#102 = CALENDAR_DATE ( 2021, 13, 10 ) ;
#103 = ORIENTED_EDGE ( 'NONE', *, *, #238, .T. ) ;
#104 = CARTESIAN_POINT ( 'NONE',  ( 8.379555213223520053E-14, -1.038521950748818292E-14, 24.00000000000000000 ) ) ;
#105 = DIRECTION ( 'NONE',  ( 0.0000000000000000000, 1.000000000000000000, 0.0000000000000000000 ) ) ;
#106 = ORIENTED_EDGE ( 'NONE', *, *, #99, .T. ) ;
#107 = ORIENTED_EDGE ( 'NONE', *, *, #126, .F. ) ;
#108 =( GEOMETRIC_REPRESENTATION_CONTEXT ( 3 ) GLOBAL_UNCERTAINTY_ASSIGNED_CONTEXT ( ( #163 ) ) GLOBAL_UNIT_ASSIGNED_CONTEXT ( ( #49, #150, #249 ) ) REPRESENTATION_CONTEXT ( 'NONE', 'WORKASPACE' ) );
#109 = FACE_OUTER_BOUND ( 'NONE', #136, .T. ) ;
#110 = DIRECTION ( 'NONE',  ( -3.491481338843133355E-15, 4.327174794786742882E-16, -1.000000000000000000 ) ) ;
#111 = MANIFOLD_SOLID_BREP ( 'Corps-Déplacer/Copier1[2]', #137 ) ;
#112 = FACE_OUTER_BOUND ( 'NONE', #260, .T. ) ;
#113 = AXIS2_PLACEMENT_3D ( 'NONE', #248, #220, #125 ) ;
#114 = AXIS2_PLACEMENT_3D ( 'NONE', #222, #128, #26 ) ;
#115 = CARTESIAN_POINT ( 'NONE',  ( 0.0000000000000000000, 0.0000000000000000000, 0.0000000000000000000 ) ) ;
#116 = CYLINDRICAL_SURFACE ( 'NONE', #30, 3.250000000000004885 ) ;
#117 = EDGE_CURVE ( 'NONE', #154, #154, #233, .T. ) ;
#118 = COORDINATED_UNIVERSAL_TIME_OFFSET ( 1, 0, .AHEAD. ) ;
#119 = APPROVAL_STATUS ( 'not_yet_approved' ) ;
#120 = EDGE_LOOP ( 'NONE', ( #106 ) ) ;
#121 = PERSON_AND_ORGANIZATION ( #24, #54 ) ;
#122 = DATE_AND_TIME ( #98, #22 ) ;
#123 = DATE_TIME_ROLE ( 'classification_date' ) ;
#124 = CIRCLE ( 'NONE', #85, 3.250000000000004885 ) ;
#125 = DIRECTION ( 'NONE',  ( 0.0000000000000000000, 1.000000000000000000, 0.0000000000000000000 ) ) ;
#126 = EDGE_CURVE ( 'NONE', #171, #171, #124, .T. ) ;
#127 = DIRECTION ( 'NONE',  ( -3.491481338843133355E-15, 1.224646799147353207E-16, -1.000000000000000000 ) ) ;
#128 = DIRECTION ( 'NONE',  ( 3.491481338843133355E-15, -4.327174794786742882E-16, 1.000000000000000000 ) ) ;
#129 = DIRECTION ( 'NONE',  ( 3.491481338843133355E-15, -1.224646799147353207E-16, 1.000000000000000000 ) ) ;
#130 = AXIS2_PLACEMENT_3D ( 'NONE', #11, #251, #175 ) ;
#131 = CARTESIAN_POINT ( 'NONE',  ( 0.0000000000000000000, 0.0000000000000000000, 0.0000000000000000000 ) ) ;
#132 = DIRECTION ( 'NONE',  ( -3.491481338843133355E-15, 1.224646799147353207E-16, -1.000000000000000000 ) ) ;
#133 = VERTEX_POINT ( 'NONE', #7 ) ;
#134 = EDGE_CURVE ( 'NONE', #92, #92, #158, .T. ) ;
#135 = PERSON_AND_ORGANIZATION_ROLE ( 'creator' ) ;
#136 = EDGE_LOOP ( 'NONE', ( #204 ) ) ;
#137 = CLOSED_SHELL ( 'NONE', ( #174, #193, #34 ) ) ;
#138 = DESIGN_CONTEXT ( 'detailed design', #261, 'design' ) ;
#139 = COORDINATED_UNIVERSAL_TIME_OFFSET ( 1, 0, .AHEAD. ) ;
#140 = EDGE_LOOP ( 'NONE', ( #144 ) ) ;
#141 = CIRCLE ( 'NONE', #29, 3.250000000000004885 ) ;
#142 = AXIS2_PLACEMENT_3D ( 'NONE', #159, #73, #14 ) ;
#143 = PRODUCT ( '39394', '39394', '', ( #36 ) ) ;
#144 = ORIENTED_EDGE ( 'NONE', *, *, #117, .T. ) ;
#145 = CARTESIAN_POINT ( 'NONE',  ( 2.730338406975330410E-13, -9.576737969332300892E-15, 78.19999999999998863 ) ) ;
#146 = FACE_OUTER_BOUND ( 'NONE', #61, .T. ) ;
#147 = ADVANCED_FACE ( 'NONE', ( #64, #146 ), #161, .T. ) ;
#148 = DIRECTION ( 'NONE',  ( -3.491481338843133355E-15, 4.327174794786742882E-16, -1.000000000000000000 ) ) ;
#149 = CARTESIAN_POINT ( 'NONE',  ( 0.0000000000000000000, 0.0000000000000000000, 0.0000000000000000000 ) ) ;
#150 =( NAMED_UNIT ( * ) PLANE_ANGLE_UNIT ( ) SI_UNIT ( $, .RADIAN. ) );
#151 = DIRECTION ( 'NONE',  ( 0.0000000000000000000, -1.000000000000000000, 0.0000000000000000000 ) ) ;
#152 = LOCAL_TIME ( 13, 35, 43.00000000000000000, #118 ) ;
#153 = CARTESIAN_POINT ( 'NONE',  ( 8.379555213223520053E-14, -3.250000000000015543, 24.00000000000000000 ) ) ;
#154 = VERTEX_POINT ( 'NONE', #53 ) ;
#155 = APPROVAL ( #119, 'UNSPECIFIED' ) ;
#156 = FACE_OUTER_BOUND ( 'NONE', #101, .T. ) ;
#157 = CLOSED_SHELL ( 'NONE', ( #246, #235, #200, #74, #147, #93, #25 ) ) ;
#158 = CIRCLE ( 'NONE', #33, 4.000000000000001776 ) ;
#159 = CARTESIAN_POINT ( 'NONE',  ( 0.0000000000000000000, 0.0000000000000000000, 0.0000000000000000000 ) ) ;
#160 = PERSON_AND_ORGANIZATION_ROLE ( 'design_owner' ) ;
#161 = CONICAL_SURFACE ( 'NONE', #114, 4.500000000000012434, 0.5235987755983000369 ) ;
#162 = APPROVAL_DATE_TIME ( #255, #262 ) ;
#163 = UNCERTAINTY_MEASURE_WITH_UNIT (LENGTH_MEASURE( 1.000000000000000082E-05 ), #49, 'distance_accuracy_value', 'NONE');
#164 = FACE_OUTER_BOUND ( 'NONE', #244, .T. ) ;
#165 = ORIENTED_EDGE ( 'NONE', *, *, #134, .F. ) ;
#166 = EDGE_LOOP ( 'NONE', ( #107 ) ) ;
#167 = TOROIDAL_SURFACE ( 'NONE', #253, 4.250000000000010658, 0.9999999999999995559 ) ;
#168 = DIRECTION ( 'NONE',  ( -3.491481338843133355E-15, 1.224646799147353207E-16, -1.000000000000000000 ) ) ;
#169 = AXIS2_PLACEMENT_3D ( 'NONE', #115, #195, #70 ) ;
#170 = FACE_OUTER_BOUND ( 'NONE', #206, .T. ) ;
#171 = VERTEX_POINT ( 'NONE', #230 ) ;
#172 = PRODUCT_DEFINITION_FORMATION_WITH_SPECIFIED_SOURCE ( 'ANY', '', #143, .NOT_KNOWN. ) ;
#173 = DIRECTION ( 'NONE',  ( 0.0000000000000000000, 1.000000000000000000, 0.0000000000000000000 ) ) ;
#174 = ADVANCED_FACE ( 'NONE', ( #188 ), #89, .T. ) ;
#175 = DIRECTION ( 'NONE',  ( -3.851859888774479151E-31, -1.000000000000000000, -1.084202172485506529E-16 ) ) ;
#176 = CARTESIAN_POINT ( 'NONE',  ( 2.730338406975330410E-13, 3.999999999999992450, 78.19999999999998863 ) ) ;
#177 = CIRCLE ( 'NONE', #199, 3.999999999999998224 ) ;
#178 = DATE_AND_TIME ( #256, #215 ) ;
#179 = EDGE_LOOP ( 'NONE', ( #20 ) ) ;
#180 = PERSON_AND_ORGANIZATION ( #24, #54 ) ;
#181 = ORIENTED_EDGE ( 'NONE', *, *, #77, .T. ) ;
#182 = DATE_TIME_ROLE ( 'creation_date' ) ;
#183 = AXIS2_PLACEMENT_3D ( 'NONE', #186, #129, #19 ) ;
#184 = CC_DESIGN_PERSON_AND_ORGANIZATION_ASSIGNMENT ( #121, #135, ( #226 ) ) ;
#185 = EDGE_LOOP ( 'NONE', ( #65 ) ) ;
#186 = CARTESIAN_POINT ( 'NONE',  ( 8.379555213223520053E-14, 2.999519565323707552E-32, 24.00000000000000000 ) ) ;
#187 = DIRECTION ( 'NONE',  ( 0.0000000000000000000, 1.000000000000000000, 0.0000000000000000000 ) ) ;
#188 = FACE_OUTER_BOUND ( 'NONE', #218, .T. ) ;
#189 = CARTESIAN_POINT ( 'NONE',  ( 8.379555213223520053E-14, 2.999519565323707552E-32, 24.00000000000000000 ) ) ;
#190 = PLANE ( 'NONE',  #183 ) ;
#191 = AXIS2_PLACEMENT_3D ( 'NONE', #9, #212, #173 ) ;
#192 = FACE_OUTER_BOUND ( 'NONE', #120, .T. ) ;
#193 = ADVANCED_FACE ( 'NONE', ( #192, #109 ), #116, .T. ) ;
#194 = CC_DESIGN_SECURITY_CLASSIFICATION ( #46, ( #172 ) ) ;
#195 = DIRECTION ( 'NONE',  ( -3.491481338843133355E-15, 1.224646799147353207E-16, -1.000000000000000000 ) ) ;
#196 = ADVANCED_BREP_SHAPE_REPRESENTATION ( '39394', ( #23, #111, #142 ), #108 ) ;
#197 = FACE_OUTER_BOUND ( 'NONE', #79, .T. ) ;
#198 = APPLICATION_PROTOCOL_DEFINITION ( 'international standard', 'config_control_design', 1994, #261 ) ;
#199 = AXIS2_PLACEMENT_3D ( 'NONE', #231, #228, #151 ) ;
#200 = ADVANCED_FACE ( 'NONE', ( #156 ), #232, .F. ) ;
#201 = PERSON_AND_ORGANIZATION_ROLE ( 'classification_officer' ) ;
#202 = APPROVAL_STATUS ( 'not_yet_approved' ) ;
#203 = DIRECTION ( 'NONE',  ( 3.491481338843133355E-15, -1.224646799147353207E-16, 1.000000000000000000 ) ) ;
#204 = ORIENTED_EDGE ( 'NONE', *, *, #238, .F. ) ;
#205 = LOCAL_TIME ( 13, 35, 43.00000000000000000, #139 ) ;
#206 = EDGE_LOOP ( 'NONE', ( #181 ) ) ;
#207 = DIRECTION ( 'NONE',  ( 0.0000000000000000000, -1.000000000000000000, 0.0000000000000000000 ) ) ;
#208 = DIRECTION ( 'NONE',  ( 1.510825004591027855E-30, 1.000000000000000000, 4.327174794786742882E-16 ) ) ;
#209 = APPROVAL ( #217, 'UNSPECIFIED' ) ;
#210 = CARTESIAN_POINT ( 'NONE',  ( 4.130084662713188673E-15, -3.250000000000004885, 1.182903261365174652 ) ) ;
#211 = APPLICATION_PROTOCOL_DEFINITION ( 'international standard', 'config_control_design', 1994, #71 ) ;
#212 = DIRECTION ( 'NONE',  ( -3.491481338843133355E-15, 1.224646799147353207E-16, -1.000000000000000000 ) ) ;
#213 = CARTESIAN_POINT ( 'NONE',  ( 4.130084662713190251E-15, -1.448638692731826544E-16, 1.182903261365175096 ) ) ;
#214 = APPROVAL_ROLE ( '' ) ;
#215 = LOCAL_TIME ( 13, 35, 43.00000000000000000, #100 ) ;
#216 = PERSON_AND_ORGANIZATION ( #24, #54 ) ;
#217 = APPROVAL_STATUS ( 'not_yet_approved' ) ;
#218 = EDGE_LOOP ( 'NONE', ( #103 ) ) ;
#219 = SECURITY_CLASSIFICATION_LEVEL ( 'unclassified' ) ;
#220 = DIRECTION ( 'NONE',  ( -3.491481338843133355E-15, 4.327174794786742882E-16, -1.000000000000000000 ) ) ;
#221 = DIRECTION ( 'NONE',  ( -4.275831445896958607E-31, -1.000000000000000000, -1.224646799147353207E-16 ) ) ;
#222 = CARTESIAN_POINT ( 'NONE',  ( 1.272051839664915151E-13, -1.576520142617732482E-14, 36.43301270189221697 ) ) ;
#223 = CIRCLE ( 'NONE', #113, 3.250000000000010214 ) ;
#224 = AXIS2_PLACEMENT_3D ( 'NONE', #32, #132, #8 ) ;
#225 = CARTESIAN_POINT ( 'NONE',  ( 2.758270257686075477E-13, -9.674709713264090904E-15, 79.00000000000000000 ) ) ;
#226 = PRODUCT_DEFINITION ( 'UNKNOWN', '', #172, #138 ) ;
#227 = DIRECTION ( 'NONE',  ( -3.491481338843133355E-15, 4.327174794786742882E-16, -1.000000000000000000 ) ) ;
#228 = DIRECTION ( 'NONE',  ( 3.491481338843133355E-15, -4.327174794786742882E-16, 1.000000000000000000 ) ) ;
#229 = FACE_BOUND ( 'NONE', #140, .T. ) ;
#230 = CARTESIAN_POINT ( 'NONE',  ( 8.379555213223520053E-14, -3.250000000000015543, 24.00000000000000000 ) ) ;
#231 = CARTESIAN_POINT ( 'NONE',  ( 1.241814724302139603E-13, -1.539045709628721131E-14, 35.56698729810775461 ) ) ;
#232 = PLANE ( 'NONE',  #224 ) ;
#233 = CIRCLE ( 'NONE', #3, 3.200000000000001954 ) ;
#234 = PERSON_AND_ORGANIZATION ( #24, #54 ) ;
#235 = ADVANCED_FACE ( 'NONE', ( #197, #229 ), #41, .T. ) ;
#236 = EDGE_LOOP ( 'NONE', ( #57 ) ) ;
#237 = LOCAL_TIME ( 13, 35, 43.00000000000000000, #95 ) ;
#238 = EDGE_CURVE ( 'NONE', #87, #87, #59, .T. ) ;
#239 = PERSON_AND_ORGANIZATION ( #24, #54 ) ;
#240 = PERSON_AND_ORGANIZATION_ROLE ( 'design_supplier' ) ;
#241 = DIRECTION ( 'NONE',  ( -3.491481338843133355E-15, 1.224646799147353207E-16, -1.000000000000000000 ) ) ;
#242 = EDGE_CURVE ( 'NONE', #68, #68, #177, .T. ) ;
#243 = FACE_OUTER_BOUND ( 'NONE', #42, .T. ) ;
#244 = EDGE_LOOP ( 'NONE', ( #1 ) ) ;
#245 = AXIS2_PLACEMENT_3D ( 'NONE', #189, #203, #221 ) ;
#246 = ADVANCED_FACE ( 'NONE', ( #5, #112 ), #250, .T. ) ;
#247 = DIRECTION ( 'NONE',  ( -3.491481338843133355E-15, 4.327174794786742882E-16, -1.000000000000000000 ) ) ;
#248 = CARTESIAN_POINT ( 'NONE',  ( 1.187103655206665341E-13, -1.471239430227492580E-14, 34.00000000000000000 ) ) ;
#249 =( NAMED_UNIT ( * ) SI_UNIT ( $, .STERADIAN. ) SOLID_ANGLE_UNIT ( ) );
#250 = CYLINDRICAL_SURFACE ( 'NONE', #169, 3.999999999999998224 ) ;
#251 = DIRECTION ( 'NONE',  ( 3.491481338843133355E-15, -1.224646799147353207E-16, 1.000000000000000000 ) ) ;
#252 = DATE_AND_TIME ( #102, #237 ) ;
#253 = AXIS2_PLACEMENT_3D ( 'NONE', #28, #148, #208 ) ;
#254 = CC_DESIGN_APPROVAL ( #155, ( #226 ) ) ;
#255 = DATE_AND_TIME ( #17, #152 ) ;
#256 = CALENDAR_DATE ( 2021, 13, 10 ) ;
#257 = SHAPE_DEFINITION_REPRESENTATION ( #78, #196 ) ;
#258 = AXIS2_PLACEMENT_3D ( 'NONE', #149, #227, #2 ) ;
#259 = PERSON_AND_ORGANIZATION_ROLE ( 'creator' ) ;
#260 = EDGE_LOOP ( 'NONE', ( #47 ) ) ;
#261 = APPLICATION_CONTEXT ( 'configuration controlled 3d designs of mechanical parts and assemblies' ) ;
#262 = APPROVAL ( #202, 'UNSPECIFIED' ) ;
#263 = FACE_OUTER_BOUND ( 'NONE', #4, .T. ) ;
ENDSEC;
END-ISO-10303-21;
