ISO-10303-21;
HEADER;
FILE_DESCRIPTION (( 'STEP AP203' ),
    '1' );
FILE_NAME ('39320.step',
    '2021-10-15T13:34:46',
    ( '' ),
    ( '' ),
    'SwSTEP 2.0',
    'SolidWorks 2019',
    '' );
FILE_SCHEMA (( 'CONFIG_CONTROL_DESIGN' ));
ENDSEC;

DATA;
#1 = FACE_OUTER_BOUND ( 'NONE', #140, .T. ) ;
#2 = CC_DESIGN_APPROVAL ( #71, ( #173 ) ) ;
#3 = VERTEX_POINT ( 'NONE', #188 ) ;
#4 = CC_DESIGN_PERSON_AND_ORGANIZATION_ASSIGNMENT ( #90, #151, ( #196 ) ) ;
#5 = DIRECTION ( 'NONE',  ( 0.0000000000000000000, 1.000000000000000000, 0.0000000000000000000 ) ) ;
#6 = PLANE ( 'NONE',  #7 ) ;
#7 = AXIS2_PLACEMENT_3D ( 'NONE', #81, #142, #84 ) ;
#8 = DATE_AND_TIME ( #102, #75 ) ;
#9 = UNCERTAINTY_MEASURE_WITH_UNIT (LENGTH_MEASURE( 1.000000000000000082E-05 ), #117, 'distance_accuracy_value', 'NONE');
#10 = APPLICATION_PROTOCOL_DEFINITION ( 'international standard', 'config_control_design', 1994, #131 ) ;
#11 = CALENDAR_DATE ( 2021, 15, 10 ) ;
#12 = ORIENTED_EDGE ( 'NONE', *, *, #97, .T. ) ;
#13 = DATE_AND_TIME ( #68, #124 ) ;
#14 = ORGANIZATION ( 'UNSPECIFIED', 'UNSPECIFIED', '' ) ;
#15 = ORIENTED_EDGE ( 'NONE', *, *, #31, .T. ) ;
#16 = CARTESIAN_POINT ( 'NONE',  ( 1.489116791016596092E-13, -5.223118598363460537E-15, 42.64999999999999147 ) ) ;
#17 = CYLINDRICAL_SURFACE ( 'NONE', #108, 1.199999999999998845 ) ;
#18 = AXIS2_PLACEMENT_3D ( 'NONE', #132, #118, #183 ) ;
#19 = DIRECTION ( 'NONE',  ( -3.491481338843133355E-15, 1.224646799147353207E-16, -1.000000000000000000 ) ) ;
#20 = CYLINDRICAL_SURFACE ( 'NONE', #110, 1.199999999999996181 ) ;
#21 = CONICAL_SURFACE ( 'NONE', #167, 1.199999999999995293, 1.221730476396026388 ) ;
#22 = DIRECTION ( 'NONE',  ( 3.491481338843133355E-15, -1.224646799147353207E-16, 1.000000000000000000 ) ) ;
#23 = FACE_OUTER_BOUND ( 'NONE', #111, .T. ) ;
#24 = CONICAL_SURFACE ( 'NONE', #180, 0.8500000000000006439, 0.7853981633974438381 ) ;
#25 = PERSON_AND_ORGANIZATION ( #54, #14 ) ;
#26 = COORDINATED_UNIVERSAL_TIME_OFFSET ( 1, 0, .AHEAD. ) ;
#27 = ORIENTED_EDGE ( 'NONE', *, *, #112, .F. ) ;
#28 = COORDINATED_UNIVERSAL_TIME_OFFSET ( 1, 0, .AHEAD. ) ;
#29 = CC_DESIGN_PERSON_AND_ORGANIZATION_ASSIGNMENT ( #135, #107, ( #201 ) ) ;
#30 = CARTESIAN_POINT ( 'NONE',  ( 1.501336975702547217E-13, 6.373979076312819568E-33, 43.00000000000000000 ) ) ;
#31 = EDGE_CURVE ( 'NONE', #98, #98, #61, .T. ) ;
#32 = DIRECTION ( 'NONE',  ( -3.491481338843133355E-15, 1.224646799147353207E-16, -1.000000000000000000 ) ) ;
#33 =( NAMED_UNIT ( * ) PLANE_ANGLE_UNIT ( ) SI_UNIT ( $, .RADIAN. ) );
#34 = DIRECTION ( 'NONE',  ( -3.491481338843133355E-15, 1.224646799147353207E-16, -1.000000000000000000 ) ) ;
#35 = CARTESIAN_POINT ( 'NONE',  ( 0.0000000000000000000, 0.0000000000000000000, 0.0000000000000000000 ) ) ;
#36 =( NAMED_UNIT ( * ) SI_UNIT ( $, .STERADIAN. ) SOLID_ANGLE_UNIT ( ) );
#37 = APPROVAL_PERSON_ORGANIZATION ( #42, #71, #70 ) ;
#38 = DIRECTION ( 'NONE',  ( 0.0000000000000000000, 1.000000000000000000, 0.0000000000000000000 ) ) ;
#39 = APPROVAL_ROLE ( '' ) ;
#40 = LOCAL_TIME ( 15, 34, 46.00000000000000000, #165 ) ;
#41 = PERSON_AND_ORGANIZATION ( #54, #14 ) ;
#42 = PERSON_AND_ORGANIZATION ( #54, #14 ) ;
#43 = PRODUCT_DEFINITION_SHAPE ( 'NONE', 'NONE',  #137 ) ;
#44 = EDGE_LOOP ( 'NONE', ( #12 ) ) ;
#45 = CC_DESIGN_APPROVAL ( #51, ( #201 ) ) ;
#46 = ADVANCED_BREP_SHAPE_REPRESENTATION ( '39320', ( #181, #179, #162 ), #91 ) ;
#47 = ADVANCED_FACE ( 'NONE', ( #169 ), #168, .F. ) ;
#48 = EDGE_LOOP ( 'NONE', ( #88 ) ) ;
#49 = VERTEX_POINT ( 'NONE', #113 ) ;
#50 = FACE_OUTER_BOUND ( 'NONE', #123, .T. ) ;
#51 = APPROVAL ( #87, 'UNSPECIFIED' ) ;
#52 = VERTEX_POINT ( 'NONE', #144 ) ;
#53 = CARTESIAN_POINT ( 'NONE',  ( 0.0000000000000000000, 0.0000000000000000000, 0.0000000000000000000 ) ) ;
#54 = PERSON ( 'UNSPECIFIED', 'UNSPECIFIED', 'UNSPECIFIED', ('UNSPECIFIED'), ('UNSPECIFIED'), ('UNSPECIFIED') ) ;
#55 = SECURITY_CLASSIFICATION_LEVEL ( 'unclassified' ) ;
#56 = CALENDAR_DATE ( 2021, 15, 10 ) ;
#57 = AXIS2_PLACEMENT_3D ( 'NONE', #82, #146, #38 ) ;
#58 = PERSON_AND_ORGANIZATION_ROLE ( 'creator' ) ;
#59 = APPLICATION_CONTEXT ( 'configuration controlled 3d designs of mechanical parts and assemblies' ) ;
#60 = CLOSED_SHELL ( 'NONE', ( #109, #161, #184 ) ) ;
#61 = CIRCLE ( 'NONE', #78, 1.200000000000000622 ) ;
#62 = ADVANCED_FACE ( 'NONE', ( #92, #152 ), #17, .T. ) ;
#63 = ORIENTED_EDGE ( 'NONE', *, *, #31, .F. ) ;
#64 = EDGE_CURVE ( 'NONE', #49, #49, #114, .T. ) ;
#65 = PLANE ( 'NONE',  #18 ) ;
#66 = CARTESIAN_POINT ( 'NONE',  ( 1.524954337001785890E-15, 1.199999999999995293, 0.4367642811194471508 ) ) ;
#67 = CARTESIAN_POINT ( 'NONE',  ( 1.501336975702547217E-13, -5.265981236333618470E-15, 43.00000000000000000 ) ) ;
#68 = CALENDAR_DATE ( 2021, 15, 10 ) ;
#69 = APPROVAL_PERSON_ORGANIZATION ( #164, #80, #39 ) ;
#70 = APPROVAL_ROLE ( '' ) ;
#71 = APPROVAL ( #194, 'UNSPECIFIED' ) ;
#72 = APPROVAL_DATE_TIME ( #76, #71 ) ;
#73 = APPROVAL_DATE_TIME ( #105, #51 ) ;
#74 = ORIENTED_EDGE ( 'NONE', *, *, #112, .T. ) ;
#75 = LOCAL_TIME ( 15, 34, 46.00000000000000000, #26 ) ;
#76 = DATE_AND_TIME ( #89, #40 ) ;
#77 = CC_DESIGN_PERSON_AND_ORGANIZATION_ASSIGNMENT ( #25, #58, ( #173 ) ) ;
#78 = AXIS2_PLACEMENT_3D ( 'NONE', #16, #32, #79 ) ;
#79 = DIRECTION ( 'NONE',  ( 0.0000000000000000000, 1.000000000000000000, 0.0000000000000000000 ) ) ;
#80 = APPROVAL ( #177, 'UNSPECIFIED' ) ;
#81 = CARTESIAN_POINT ( 'NONE',  ( 4.888073874380386697E-14, 8.998558695971097751E-33, 14.00000000000000000 ) ) ;
#82 = CARTESIAN_POINT ( 'NONE',  ( 1.501336975702547217E-13, -5.265981236333618470E-15, 43.00000000000000000 ) ) ;
#83 = CC_DESIGN_APPROVAL ( #80, ( #137 ) ) ;
#84 = DIRECTION ( 'NONE',  ( -4.275831445896958607E-31, -1.000000000000000000, -1.224646799147353207E-16 ) ) ;
#85 = DIRECTION ( 'NONE',  ( 4.814824860968108900E-31, 1.000000000000000000, 1.355252715606885966E-16 ) ) ;
#86 = PERSON_AND_ORGANIZATION ( #54, #14 ) ;
#87 = APPROVAL_STATUS ( 'not_yet_approved' ) ;
#88 = ORIENTED_EDGE ( 'NONE', *, *, #64, .F. ) ;
#89 = CALENDAR_DATE ( 2021, 15, 10 ) ;
#90 = PERSON_AND_ORGANIZATION ( #54, #14 ) ;
#91 =( GEOMETRIC_REPRESENTATION_CONTEXT ( 3 ) GLOBAL_UNCERTAINTY_ASSIGNED_CONTEXT ( ( #9 ) ) GLOBAL_UNIT_ASSIGNED_CONTEXT ( ( #117, #33, #36 ) ) REPRESENTATION_CONTEXT ( 'NONE', 'WORKASPACE' ) );
#92 = FACE_OUTER_BOUND ( 'NONE', #48, .T. ) ;
#93 = ORIENTED_EDGE ( 'NONE', *, *, #64, .T. ) ;
#94 = DIRECTION ( 'NONE',  ( -3.491481338843133355E-15, 1.224646799147353207E-16, -1.000000000000000000 ) ) ;
#95 = AXIS2_PLACEMENT_3D ( 'NONE', #128, #116, #185 ) ;
#96 = FACE_OUTER_BOUND ( 'NONE', #182, .T. ) ;
#97 = EDGE_CURVE ( 'NONE', #52, #52, #99, .T. ) ;
#98 = VERTEX_POINT ( 'NONE', #125 ) ;
#99 = CIRCLE ( 'NONE', #57, 0.8500000000000006439 ) ;
#100 = FACE_BOUND ( 'NONE', #44, .T. ) ;
#101 = CC_DESIGN_PERSON_AND_ORGANIZATION_ASSIGNMENT ( #134, #119, ( #173 ) ) ;
#102 = CALENDAR_DATE ( 2021, 15, 10 ) ;
#103 = CIRCLE ( 'NONE', #95, 1.199999999999997069 ) ;
#104 = CARTESIAN_POINT ( 'NONE',  ( 0.0000000000000000000, 0.0000000000000000000, 0.0000000000000000000 ) ) ;
#105 = DATE_AND_TIME ( #11, #154 ) ;
#106 = CC_DESIGN_DATE_AND_TIME_ASSIGNMENT ( #8, #163, ( #137 ) ) ;
#107 = PERSON_AND_ORGANIZATION_ROLE ( 'classification_officer' ) ;
#108 = AXIS2_PLACEMENT_3D ( 'NONE', #35, #171, #156 ) ;
#109 = ADVANCED_FACE ( 'NONE', ( #96 ), #21, .T. ) ;
#110 = AXIS2_PLACEMENT_3D ( 'NONE', #53, #174, #115 ) ;
#111 = EDGE_LOOP ( 'NONE', ( #63 ) ) ;
#112 = EDGE_CURVE ( 'NONE', #3, #3, #103, .T. ) ;
#113 = CARTESIAN_POINT ( 'NONE',  ( 4.888073874380386697E-14, 1.199999999999995293, 14.00000000000000000 ) ) ;
#114 = CIRCLE ( 'NONE', #143, 1.199999999999997069 ) ;
#115 = DIRECTION ( 'NONE',  ( 4.275831445896958607E-31, 1.000000000000000000, 1.224646799147353207E-16 ) ) ;
#116 = DIRECTION ( 'NONE',  ( -3.491481338843133355E-15, 1.224646799147353207E-16, -1.000000000000000000 ) ) ;
#117 =( LENGTH_UNIT ( ) NAMED_UNIT ( * ) SI_UNIT ( .MILLI., .METRE. ) );
#118 = DIRECTION ( 'NONE',  ( 3.491481338843133355E-15, -1.224646799147353207E-16, 1.000000000000000000 ) ) ;
#119 = PERSON_AND_ORGANIZATION_ROLE ( 'design_supplier' ) ;
#120 = APPROVAL_PERSON_ORGANIZATION ( #86, #51, #149 ) ;
#121 = DESIGN_CONTEXT ( 'detailed design', #131, 'design' ) ;
#122 = ORIENTED_EDGE ( 'NONE', *, *, #176, .T. ) ;
#123 = EDGE_LOOP ( 'NONE', ( #139 ) ) ;
#124 = LOCAL_TIME ( 15, 34, 46.00000000000000000, #166 ) ;
#125 = CARTESIAN_POINT ( 'NONE',  ( 1.489116791016596092E-13, 1.199999999999995293, 42.64999999999999147 ) ) ;
#126 = CARTESIAN_POINT ( 'NONE',  ( 1.524954337001785298E-15, -5.348819788548255035E-17, 0.4367642811194469843 ) ) ;
#127 = LOCAL_TIME ( 15, 34, 46.00000000000000000, #133 ) ;
#128 = CARTESIAN_POINT ( 'NONE',  ( 4.888073874380386697E-14, -1.714505518806294638E-15, 14.00000000000000000 ) ) ;
#129 = ADVANCED_FACE ( 'NONE', ( #23, #100 ), #24, .T. ) ;
#130 = CARTESIAN_POINT ( 'NONE',  ( 1.524954337001785298E-15, -5.348819788548255035E-17, 0.4367642811194469843 ) ) ;
#131 = APPLICATION_CONTEXT ( 'configuration controlled 3d designs of mechanical parts and assemblies' ) ;
#132 = CARTESIAN_POINT ( 'NONE',  ( 4.888073874380386697E-14, 8.998558695971097751E-33, 14.00000000000000000 ) ) ;
#133 = COORDINATED_UNIVERSAL_TIME_OFFSET ( 1, 0, .AHEAD. ) ;
#134 = PERSON_AND_ORGANIZATION ( #54, #14 ) ;
#135 = PERSON_AND_ORGANIZATION ( #54, #14 ) ;
#136 = DIRECTION ( 'NONE',  ( 0.0000000000000000000, 0.0000000000000000000, 1.000000000000000000 ) ) ;
#137 = PRODUCT_DEFINITION ( 'UNKNOWN', '', #173, #121 ) ;
#138 = CIRCLE ( 'NONE', #186, 1.199999999999995293 ) ;
#139 = ORIENTED_EDGE ( 'NONE', *, *, #176, .F. ) ;
#140 = EDGE_LOOP ( 'NONE', ( #93 ) ) ;
#141 = CC_DESIGN_PERSON_AND_ORGANIZATION_ASSIGNMENT ( #41, #148, ( #137 ) ) ;
#142 = DIRECTION ( 'NONE',  ( 3.491481338843133355E-15, -1.224646799147353207E-16, 1.000000000000000000 ) ) ;
#143 = AXIS2_PLACEMENT_3D ( 'NONE', #203, #19, #159 ) ;
#144 = CARTESIAN_POINT ( 'NONE',  ( 1.501336975702547217E-13, 0.8499999999999953149, 43.00000000000000000 ) ) ;
#145 = DIRECTION ( 'NONE',  ( -4.814824860968108900E-31, -1.000000000000000000, -1.355252715606885966E-16 ) ) ;
#146 = DIRECTION ( 'NONE',  ( -3.491481338843133355E-15, 1.224646799147353207E-16, -1.000000000000000000 ) ) ;
#147 = MECHANICAL_CONTEXT ( 'NONE', #59, 'mechanical' ) ;
#148 = PERSON_AND_ORGANIZATION_ROLE ( 'creator' ) ;
#149 = APPROVAL_ROLE ( '' ) ;
#150 = DATE_AND_TIME ( #56, #127 ) ;
#151 = PERSON_AND_ORGANIZATION_ROLE ( 'design_owner' ) ;
#152 = FACE_OUTER_BOUND ( 'NONE', #178, .T. ) ;
#153 = EDGE_LOOP ( 'NONE', ( #199 ) ) ;
#154 = LOCAL_TIME ( 15, 34, 46.00000000000000000, #28 ) ;
#155 = CC_DESIGN_DATE_AND_TIME_ASSIGNMENT ( #13, #191, ( #201 ) ) ;
#156 = DIRECTION ( 'NONE',  ( 4.275831445896957731E-31, 1.000000000000000000, 1.224646799147353207E-16 ) ) ;
#157 = VERTEX_POINT ( 'NONE', #66 ) ;
#158 = CC_DESIGN_SECURITY_CLASSIFICATION ( #201, ( #173 ) ) ;
#159 = DIRECTION ( 'NONE',  ( 0.0000000000000000000, 1.000000000000000000, 0.0000000000000000000 ) ) ;
#160 = DIRECTION ( 'NONE',  ( -3.491481338843133355E-15, 1.224646799147353207E-16, -1.000000000000000000 ) ) ;
#161 = ADVANCED_FACE ( 'NONE', ( #50, #187 ), #20, .T. ) ;
#162 = AXIS2_PLACEMENT_3D ( 'NONE', #104, #136, #190 ) ;
#163 = DATE_TIME_ROLE ( 'creation_date' ) ;
#164 = PERSON_AND_ORGANIZATION ( #54, #14 ) ;
#165 = COORDINATED_UNIVERSAL_TIME_OFFSET ( 1, 0, .AHEAD. ) ;
#166 = COORDINATED_UNIVERSAL_TIME_OFFSET ( 1, 0, .AHEAD. ) ;
#167 = AXIS2_PLACEMENT_3D ( 'NONE', #126, #22, #145 ) ;
#168 = PLANE ( 'NONE',  #195 ) ;
#169 = FACE_OUTER_BOUND ( 'NONE', #153, .T. ) ;
#170 = CLOSED_SHELL ( 'NONE', ( #202, #62, #129, #47 ) ) ;
#171 = DIRECTION ( 'NONE',  ( -3.491481338843133355E-15, 1.224646799147353207E-16, -1.000000000000000000 ) ) ;
#172 = FACE_OUTER_BOUND ( 'NONE', #200, .T. ) ;
#173 = PRODUCT_DEFINITION_FORMATION_WITH_SPECIFIED_SOURCE ( 'ANY', '', #196, .NOT_KNOWN. ) ;
#174 = DIRECTION ( 'NONE',  ( -3.491481338843133355E-15, 1.224646799147353207E-16, -1.000000000000000000 ) ) ;
#175 = APPROVAL_DATE_TIME ( #150, #80 ) ;
#176 = EDGE_CURVE ( 'NONE', #157, #157, #138, .T. ) ;
#177 = APPROVAL_STATUS ( 'not_yet_approved' ) ;
#178 = EDGE_LOOP ( 'NONE', ( #15 ) ) ;
#179 = MANIFOLD_SOLID_BREP ( 'Corps-Déplacer/Copier1[2]', #60 ) ;
#180 = AXIS2_PLACEMENT_3D ( 'NONE', #67, #34, #5 ) ;
#181 = MANIFOLD_SOLID_BREP ( 'Corps-Déplacer/Copier1[1]', #170 ) ;
#182 = EDGE_LOOP ( 'NONE', ( #122 ) ) ;
#183 = DIRECTION ( 'NONE',  ( -4.275831445896958607E-31, -1.000000000000000000, -1.224646799147353207E-16 ) ) ;
#184 = ADVANCED_FACE ( 'NONE', ( #172 ), #6, .T. ) ;
#185 = DIRECTION ( 'NONE',  ( 0.0000000000000000000, 1.000000000000000000, 0.0000000000000000000 ) ) ;
#186 = AXIS2_PLACEMENT_3D ( 'NONE', #130, #160, #85 ) ;
#187 = FACE_OUTER_BOUND ( 'NONE', #198, .T. ) ;
#188 = CARTESIAN_POINT ( 'NONE',  ( 4.888073874380386697E-14, 1.199999999999995293, 14.00000000000000000 ) ) ;
#189 = APPLICATION_PROTOCOL_DEFINITION ( 'international standard', 'config_control_design', 1994, #59 ) ;
#190 = DIRECTION ( 'NONE',  ( 1.000000000000000000, 0.0000000000000000000, 0.0000000000000000000 ) ) ;
#191 = DATE_TIME_ROLE ( 'classification_date' ) ;
#192 = SHAPE_DEFINITION_REPRESENTATION ( #43, #46 ) ;
#193 = DIRECTION ( 'NONE',  ( 4.275831445896958607E-31, 1.000000000000000000, 1.224646799147353207E-16 ) ) ;
#194 = APPROVAL_STATUS ( 'not_yet_approved' ) ;
#195 = AXIS2_PLACEMENT_3D ( 'NONE', #30, #94, #193 ) ;
#196 = PRODUCT ( '39320', '39320', '', ( #147 ) ) ;
#197 = PRODUCT_RELATED_PRODUCT_CATEGORY ( 'detail', '', ( #196 ) ) ;
#198 = EDGE_LOOP ( 'NONE', ( #74 ) ) ;
#199 = ORIENTED_EDGE ( 'NONE', *, *, #97, .F. ) ;
#200 = EDGE_LOOP ( 'NONE', ( #27 ) ) ;
#201 = SECURITY_CLASSIFICATION ( '', '', #55 ) ;
#202 = ADVANCED_FACE ( 'NONE', ( #1 ), #65, .F. ) ;
#203 = CARTESIAN_POINT ( 'NONE',  ( 4.888073874380386697E-14, -1.714505518806294638E-15, 14.00000000000000000 ) ) ;
ENDSEC;
END-ISO-10303-21;
