ISO-10303-21;
HEADER;
FILE_DESCRIPTION (( 'STEP AP203' ),
    '1' );
FILE_NAME ('392843.step',
    '2021-12-09T12:42:34',
    ( '' ),
    ( '' ),
    'SwSTEP 2.0',
    'SolidWorks 2019',
    '' );
FILE_SCHEMA (( 'CONFIG_CONTROL_DESIGN' ));
ENDSEC;

DATA;
#1 = DATE_TIME_ROLE ( 'classification_date' ) ;
#2 = AXIS2_PLACEMENT_3D ( 'NONE', #40, #158, #51 ) ;
#3 = LOCAL_TIME ( 13, 42, 34.00000000000000000, #155 ) ;
#4 = ORIENTED_EDGE ( 'NONE', *, *, #19, .T. ) ;
#5 = DATE_AND_TIME ( #96, #24 ) ;
#6 = PERSON_AND_ORGANIZATION ( #183, #22 ) ;
#7 = EDGE_LOOP ( 'NONE', ( #156 ) ) ;
#8 = APPROVAL_ROLE ( '' ) ;
#9 = ADVANCED_FACE ( 'NONE', ( #61, #215 ), #206, .T. ) ;
#10 = DIRECTION ( 'NONE',  ( 0.0000000000000000000, 0.0000000000000000000, 1.000000000000000000 ) ) ;
#11 = CARTESIAN_POINT ( 'NONE',  ( 0.0000000000000000000, 0.0000000000000000000, 0.0000000000000000000 ) ) ;
#12 = ADVANCED_FACE ( 'NONE', ( #113 ), #185, .F. ) ;
#13 = CARTESIAN_POINT ( 'NONE',  ( 9.077851480992145462E-14, -5.999999999999987566, 25.99999999999999645 ) ) ;
#14 = APPROVAL ( #46, 'UNSPECIFIED' ) ;
#15 = FACE_OUTER_BOUND ( 'NONE', #50, .T. ) ;
#16 = FACE_OUTER_BOUND ( 'NONE', #188, .T. ) ;
#17 = VERTEX_POINT ( 'NONE', #190 ) ;
#18 = CC_DESIGN_DATE_AND_TIME_ASSIGNMENT ( #101, #114, ( #159 ) ) ;
#19 = EDGE_CURVE ( 'NONE', #182, #182, #94, .T. ) ;
#20 =( LENGTH_UNIT ( ) NAMED_UNIT ( * ) SI_UNIT ( .MILLI., .METRE. ) );
#21 = APPLICATION_CONTEXT ( 'configuration controlled 3d designs of mechanical parts and assemblies' ) ;
#22 = ORGANIZATION ( 'UNSPECIFIED', 'UNSPECIFIED', '' ) ;
#23 = CC_DESIGN_PERSON_AND_ORGANIZATION_ASSIGNMENT ( #115, #167, ( #149 ) ) ;
#24 = LOCAL_TIME ( 13, 42, 34.00000000000000000, #169 ) ;
#25 = CARTESIAN_POINT ( 'NONE',  ( -7.400477502513966078E-31, 5.999999999999992006, -2.119580998524264778E-16 ) ) ;
#26 = APPROVAL_DATE_TIME ( #172, #14 ) ;
#27 = APPROVAL_ROLE ( '' ) ;
#28 = EDGE_LOOP ( 'NONE', ( #132 ) ) ;
#29 = PERSON_AND_ORGANIZATION ( #183, #22 ) ;
#30 = PERSON_AND_ORGANIZATION ( #183, #22 ) ;
#31 = COORDINATED_UNIVERSAL_TIME_OFFSET ( 1, 0, .AHEAD. ) ;
#32 = EDGE_CURVE ( 'NONE', #17, #17, #98, .T. ) ;
#33 = CARTESIAN_POINT ( 'NONE',  ( 2.583696190743918430E-13, -4.800000000000012257, 74.00000000000000000 ) ) ;
#34 =( GEOMETRIC_REPRESENTATION_CONTEXT ( 3 ) GLOBAL_UNCERTAINTY_ASSIGNED_CONTEXT ( ( #97 ) ) GLOBAL_UNIT_ASSIGNED_CONTEXT ( ( #20, #109, #41 ) ) REPRESENTATION_CONTEXT ( 'NONE', 'WORKASPACE' ) );
#35 = DIRECTION ( 'NONE',  ( 1.000000000000000000, 0.0000000000000000000, -3.491481338843133355E-15 ) ) ;
#36 = CC_DESIGN_PERSON_AND_ORGANIZATION_ASSIGNMENT ( #189, #187, ( #199 ) ) ;
#37 = CARTESIAN_POINT ( 'NONE',  ( 9.077851480992145462E-14, 1.836970198721031561E-15, 25.99999999999999645 ) ) ;
#38 = FACE_OUTER_BOUND ( 'NONE', #136, .T. ) ;
#39 = CC_DESIGN_SECURITY_CLASSIFICATION ( #141, ( #149 ) ) ;
#40 = CARTESIAN_POINT ( 'NONE',  ( 9.077851480992145462E-14, 1.836970198721031955E-15, 25.99999999999999645 ) ) ;
#41 =( NAMED_UNIT ( * ) SI_UNIT ( $, .STERADIAN. ) SOLID_ANGLE_UNIT ( ) );
#42 = CIRCLE ( 'NONE', #112, 6.000000000000000000 ) ;
#43 = TOROIDAL_SURFACE ( 'NONE', #218, 4.000000000000000000, 2.000000000000000000 ) ;
#44 = CC_DESIGN_PERSON_AND_ORGANIZATION_ASSIGNMENT ( #196, #170, ( #149 ) ) ;
#45 = CARTESIAN_POINT ( 'NONE',  ( 0.0000000000000000000, 0.0000000000000000000, 0.0000000000000000000 ) ) ;
#46 = APPROVAL_STATUS ( 'not_yet_approved' ) ;
#47 = DIRECTION ( 'NONE',  ( 3.491481338843133355E-15, 7.065269995080892042E-17, 1.000000000000000000 ) ) ;
#48 = DIRECTION ( 'NONE',  ( 1.000000000000000000, 0.0000000000000000000, 0.0000000000000000000 ) ) ;
#49 = AXIS2_PLACEMENT_3D ( 'NONE', #144, #143, #125 ) ;
#50 = EDGE_LOOP ( 'NONE', ( #77 ) ) ;
#51 = DIRECTION ( 'NONE',  ( 0.0000000000000000000, -1.000000000000000000, 0.0000000000000000000 ) ) ;
#52 = VERTEX_POINT ( 'NONE', #13 ) ;
#53 = CC_DESIGN_APPROVAL ( #14, ( #159 ) ) ;
#54 = APPLICATION_CONTEXT ( 'configuration controlled 3d designs of mechanical parts and assemblies' ) ;
#55 = FACE_OUTER_BOUND ( 'NONE', #28, .T. ) ;
#56 = CYLINDRICAL_SURFACE ( 'NONE', #146, 5.999999999999996447 ) ;
#57 = CC_DESIGN_PERSON_AND_ORGANIZATION_ASSIGNMENT ( #30, #99, ( #159 ) ) ;
#58 = APPROVAL ( #95, 'UNSPECIFIED' ) ;
#59 = EDGE_CURVE ( 'NONE', #93, #93, #157, .T. ) ;
#60 = ORIENTED_EDGE ( 'NONE', *, *, #116, .T. ) ;
#61 = FACE_BOUND ( 'NONE', #120, .T. ) ;
#62 = APPROVAL_DATE_TIME ( #5, #200 ) ;
#63 = ORIENTED_EDGE ( 'NONE', *, *, #81, .T. ) ;
#64 = PERSON_AND_ORGANIZATION_ROLE ( 'classification_officer' ) ;
#65 = COORDINATED_UNIVERSAL_TIME_OFFSET ( 1, 0, .AHEAD. ) ;
#66 = EDGE_LOOP ( 'NONE', ( #211 ) ) ;
#67 = SECURITY_CLASSIFICATION_LEVEL ( 'unclassified' ) ;
#68 = FACE_OUTER_BOUND ( 'NONE', #100, .T. ) ;
#69 = DIRECTION ( 'NONE',  ( 3.491481338843133355E-15, -2.449293598294706414E-16, 1.000000000000000000 ) ) ;
#70 = MANIFOLD_SOLID_BREP ( 'Corps-Déplacer/Copier1[2]', #131 ) ;
#71 = DIRECTION ( 'NONE',  ( 3.491481338843133355E-15, -2.449293598294706414E-16, 1.000000000000000000 ) ) ;
#72 = CARTESIAN_POINT ( 'NONE',  ( 2.583696190743918430E-13, -9.919639073093559622E-15, 74.00000000000000000 ) ) ;
#73 = CARTESIAN_POINT ( 'NONE',  ( 4.000000000000000000, 0.0000000000000000000, -1.396592535537253342E-14 ) ) ;
#74 = AXIS2_PLACEMENT_3D ( 'NONE', #103, #203, #194 ) ;
#75 = LOCAL_TIME ( 13, 42, 34.00000000000000000, #65 ) ;
#76 = APPROVAL_PERSON_ORGANIZATION ( #153, #58, #8 ) ;
#77 = ORIENTED_EDGE ( 'NONE', *, *, #32, .F. ) ;
#78 = APPROVAL_DATE_TIME ( #135, #58 ) ;
#79 = EDGE_LOOP ( 'NONE', ( #209 ) ) ;
#80 = APPLICATION_PROTOCOL_DEFINITION ( 'international standard', 'config_control_design', 1994, #21 ) ;
#81 = EDGE_CURVE ( 'NONE', #52, #52, #174, .T. ) ;
#82 = PRODUCT_DEFINITION_SHAPE ( 'NONE', 'NONE',  #159 ) ;
#83 = ORIENTED_EDGE ( 'NONE', *, *, #59, .T. ) ;
#84 = COORDINATED_UNIVERSAL_TIME_OFFSET ( 1, 0, .AHEAD. ) ;
#85 = AXIS2_PLACEMENT_3D ( 'NONE', #207, #91, #87 ) ;
#86 = APPROVAL_ROLE ( '' ) ;
#87 = DIRECTION ( 'NONE',  ( 0.0000000000000000000, -1.000000000000000000, 0.0000000000000000000 ) ) ;
#88 = VERTEX_POINT ( 'NONE', #217 ) ;
#89 = ADVANCED_FACE ( 'NONE', ( #121 ), #104, .F. ) ;
#90 = DIRECTION ( 'NONE',  ( 0.0000000000000000000, -1.000000000000000000, 0.0000000000000000000 ) ) ;
#91 = DIRECTION ( 'NONE',  ( 3.491481338843133355E-15, 7.065269995080892042E-17, 1.000000000000000000 ) ) ;
#92 = CLOSED_SHELL ( 'NONE', ( #111, #148, #9, #176 ) ) ;
#93 = VERTEX_POINT ( 'NONE', #73 ) ;
#94 = CIRCLE ( 'NONE', #213, 4.800000000000003375 ) ;
#95 = APPROVAL_STATUS ( 'not_yet_approved' ) ;
#96 = CALENDAR_DATE ( 2021, 9, 12 ) ;
#97 = UNCERTAINTY_MEASURE_WITH_UNIT (LENGTH_MEASURE( 1.000000000000000082E-05 ), #20, 'distance_accuracy_value', 'NONE');
#98 = CIRCLE ( 'NONE', #150, 6.000000000000001776 ) ;
#99 = PERSON_AND_ORGANIZATION_ROLE ( 'creator' ) ;
#100 = EDGE_LOOP ( 'NONE', ( #4 ) ) ;
#101 = DATE_AND_TIME ( #152, #129 ) ;
#102 = APPLICATION_PROTOCOL_DEFINITION ( 'international standard', 'config_control_design', 1994, #54 ) ;
#103 = CARTESIAN_POINT ( 'NONE',  ( 2.583696190743918430E-13, -9.919639073093559622E-15, 74.00000000000000000 ) ) ;
#104 = PLANE ( 'NONE',  #127 ) ;
#105 = DIRECTION ( 'NONE',  ( -2.466825834171325237E-31, 1.000000000000000000, -7.065269995080892042E-17 ) ) ;
#106 = FACE_OUTER_BOUND ( 'NONE', #202, .T. ) ;
#107 = LOCAL_TIME ( 13, 42, 34.00000000000000000, #84 ) ;
#108 = FACE_OUTER_BOUND ( 'NONE', #154, .T. ) ;
#109 =( NAMED_UNIT ( * ) PLANE_ANGLE_UNIT ( ) SI_UNIT ( $, .RADIAN. ) );
#110 = CC_DESIGN_DATE_AND_TIME_ASSIGNMENT ( #186, #1, ( #141 ) ) ;
#111 = ADVANCED_FACE ( 'NONE', ( #55 ), #139, .F. ) ;
#112 = AXIS2_PLACEMENT_3D ( 'NONE', #222, #219, #161 ) ;
#113 = FACE_OUTER_BOUND ( 'NONE', #79, .T. ) ;
#114 = DATE_TIME_ROLE ( 'creation_date' ) ;
#115 = PERSON_AND_ORGANIZATION ( #183, #22 ) ;
#116 = EDGE_CURVE ( 'NONE', #88, #88, #130, .T. ) ;
#117 = CALENDAR_DATE ( 2021, 9, 12 ) ;
#118 = EDGE_LOOP ( 'NONE', ( #60 ) ) ;
#119 = AXIS2_PLACEMENT_3D ( 'NONE', #25, #47, #193 ) ;
#120 = EDGE_LOOP ( 'NONE', ( #212 ) ) ;
#121 = FACE_OUTER_BOUND ( 'NONE', #118, .T. ) ;
#122 = CC_DESIGN_APPROVAL ( #58, ( #149 ) ) ;
#123 = DIRECTION ( 'NONE',  ( 3.491481338843133355E-15, -2.449293598294706414E-16, 1.000000000000000000 ) ) ;
#124 = ADVANCED_FACE ( 'NONE', ( #106, #178 ), #192, .T. ) ;
#125 = DIRECTION ( 'NONE',  ( -8.551662891793917213E-31, -1.000000000000000000, -2.449293598294706414E-16 ) ) ;
#126 = DIRECTION ( 'NONE',  ( 3.491481338843133355E-15, 7.065269995080892042E-17, 1.000000000000000000 ) ) ;
#127 = AXIS2_PLACEMENT_3D ( 'NONE', #37, #147, #105 ) ;
#128 = PLANE ( 'NONE',  #74 ) ;
#129 = LOCAL_TIME ( 13, 42, 34.00000000000000000, #31 ) ;
#130 = CIRCLE ( 'NONE', #181, 5.999999999999990230 ) ;
#131 = CLOSED_SHELL ( 'NONE', ( #124, #89, #166, #12 ) ) ;
#132 = ORIENTED_EDGE ( 'NONE', *, *, #81, .F. ) ;
#133 = PERSON_AND_ORGANIZATION ( #183, #22 ) ;
#134 = DIRECTION ( 'NONE',  ( -3.491481338843133355E-15, 2.449293598294706414E-16, -1.000000000000000000 ) ) ;
#135 = DATE_AND_TIME ( #214, #107 ) ;
#136 = EDGE_LOOP ( 'NONE', ( #83 ) ) ;
#137 = CALENDAR_DATE ( 2021, 9, 12 ) ;
#138 = CARTESIAN_POINT ( 'NONE',  ( 2.541798414677800578E-13, -9.625723841298188009E-15, 72.79999999999998295 ) ) ;
#139 = PLANE ( 'NONE',  #49 ) ;
#140 = AXIS2_PLACEMENT_3D ( 'NONE', #11, #205, #35 ) ;
#141 = SECURITY_CLASSIFICATION ( '', '', #67 ) ;
#142 = CARTESIAN_POINT ( 'NONE',  ( 2.541798414677800578E-13, -9.625723841298188009E-15, 72.79999999999998295 ) ) ;
#143 = DIRECTION ( 'NONE',  ( 3.491481338843133355E-15, -2.449293598294706414E-16, 1.000000000000000000 ) ) ;
#144 = CARTESIAN_POINT ( 'NONE',  ( 9.077851480992145462E-14, 1.836970198721031561E-15, 25.99999999999999645 ) ) ;
#145 = PRODUCT_RELATED_PRODUCT_CATEGORY ( 'detail', '', ( #199 ) ) ;
#146 = AXIS2_PLACEMENT_3D ( 'NONE', #216, #71, #90 ) ;
#147 = DIRECTION ( 'NONE',  ( -3.491481338843133355E-15, -7.065269995080892042E-17, -1.000000000000000000 ) ) ;
#148 = ADVANCED_FACE ( 'NONE', ( #15, #108 ), #56, .T. ) ;
#149 = PRODUCT_DEFINITION_FORMATION_WITH_SPECIFIED_SOURCE ( 'ANY', '', #199, .NOT_KNOWN. ) ;
#150 = AXIS2_PLACEMENT_3D ( 'NONE', #142, #69, #175 ) ;
#151 = MANIFOLD_SOLID_BREP ( 'Corps-Déplacer/Copier1[1]', #92 ) ;
#152 = CALENDAR_DATE ( 2021, 9, 12 ) ;
#153 = PERSON_AND_ORGANIZATION ( #183, #22 ) ;
#154 = EDGE_LOOP ( 'NONE', ( #63 ) ) ;
#155 = COORDINATED_UNIVERSAL_TIME_OFFSET ( 1, 0, .AHEAD. ) ;
#156 = ORIENTED_EDGE ( 'NONE', *, *, #32, .T. ) ;
#157 = CIRCLE ( 'NONE', #140, 4.000000000000000000 ) ;
#158 = DIRECTION ( 'NONE',  ( 3.491481338843133355E-15, -2.449293598294706414E-16, 1.000000000000000000 ) ) ;
#159 = PRODUCT_DEFINITION ( 'UNKNOWN', '', #149, #201 ) ;
#160 = DIRECTION ( 'NONE',  ( 0.0000000000000000000, -1.000000000000000000, 0.0000000000000000000 ) ) ;
#161 = DIRECTION ( 'NONE',  ( 1.000000000000000000, 0.0000000000000000000, -3.469446951953614189E-15 ) ) ;
#162 = CARTESIAN_POINT ( 'NONE',  ( 6.982962677686268288E-15, 0.0000000000000000000, 2.000000000000000444 ) ) ;
#163 = CARTESIAN_POINT ( 'NONE',  ( 6.000000000000007105, 0.0000000000000000000, 1.999999999999979572 ) ) ;
#164 = EDGE_CURVE ( 'NONE', #204, #204, #42, .T. ) ;
#165 = ADVANCED_BREP_SHAPE_REPRESENTATION ( '392843', ( #151, #70, #195 ), #34 ) ;
#166 = ADVANCED_FACE ( 'NONE', ( #38, #16 ), #43, .T. ) ;
#167 = PERSON_AND_ORGANIZATION_ROLE ( 'creator' ) ;
#168 = ORIENTED_EDGE ( 'NONE', *, *, #164, .F. ) ;
#169 = COORDINATED_UNIVERSAL_TIME_OFFSET ( 1, 0, .AHEAD. ) ;
#170 = PERSON_AND_ORGANIZATION_ROLE ( 'design_supplier' ) ;
#171 = ORIENTED_EDGE ( 'NONE', *, *, #116, .F. ) ;
#172 = DATE_AND_TIME ( #117, #3 ) ;
#173 = APPROVAL_STATUS ( 'not_yet_approved' ) ;
#174 = CIRCLE ( 'NONE', #2, 5.999999999999989342 ) ;
#175 = DIRECTION ( 'NONE',  ( 0.0000000000000000000, -1.000000000000000000, 0.0000000000000000000 ) ) ;
#176 = ADVANCED_FACE ( 'NONE', ( #68 ), #128, .F. ) ;
#177 = DIRECTION ( 'NONE',  ( 0.0000000000000000000, -1.000000000000000000, 0.0000000000000000000 ) ) ;
#178 = FACE_OUTER_BOUND ( 'NONE', #66, .T. ) ;
#179 = APPROVAL_PERSON_ORGANIZATION ( #133, #200, #27 ) ;
#180 = CARTESIAN_POINT ( 'NONE',  ( 9.077851480992145462E-14, 1.836970198721031561E-15, 25.99999999999999645 ) ) ;
#181 = AXIS2_PLACEMENT_3D ( 'NONE', #180, #126, #177 ) ;
#182 = VERTEX_POINT ( 'NONE', #33 ) ;
#183 = PERSON ( 'UNSPECIFIED', 'UNSPECIFIED', 'UNSPECIFIED', ('UNSPECIFIED'), ('UNSPECIFIED'), ('UNSPECIFIED') ) ;
#184 = APPROVAL_PERSON_ORGANIZATION ( #29, #14, #86 ) ;
#185 = PLANE ( 'NONE',  #119 ) ;
#186 = DATE_AND_TIME ( #137, #75 ) ;
#187 = PERSON_AND_ORGANIZATION_ROLE ( 'design_owner' ) ;
#188 = EDGE_LOOP ( 'NONE', ( #168 ) ) ;
#189 = PERSON_AND_ORGANIZATION ( #183, #22 ) ;
#190 = CARTESIAN_POINT ( 'NONE',  ( 2.541798414677800578E-13, -6.000000000000011546, 72.79999999999998295 ) ) ;
#191 = DIRECTION ( 'NONE',  ( 1.000000000000000000, 0.0000000000000000000, -3.491481338843133355E-15 ) ) ;
#192 = CYLINDRICAL_SURFACE ( 'NONE', #85, 5.999999999999991118 ) ;
#193 = DIRECTION ( 'NONE',  ( 2.466825834171325237E-31, -1.000000000000000000, 7.065269995080892042E-17 ) ) ;
#194 = DIRECTION ( 'NONE',  ( 8.551662891793917213E-31, 1.000000000000000000, 2.449293598294706414E-16 ) ) ;
#195 = AXIS2_PLACEMENT_3D ( 'NONE', #45, #10, #48 ) ;
#196 = PERSON_AND_ORGANIZATION ( #183, #22 ) ;
#197 = DIRECTION ( 'NONE',  ( 0.0000000000000000000, 1.000000000000000000, 0.0000000000000000000 ) ) ;
#198 = SHAPE_DEFINITION_REPRESENTATION ( #82, #165 ) ;
#199 = PRODUCT ( '392843', '392843', '', ( #210 ) ) ;
#200 = APPROVAL ( #173, 'UNSPECIFIED' ) ;
#201 = DESIGN_CONTEXT ( 'detailed design', #54, 'design' ) ;
#202 = EDGE_LOOP ( 'NONE', ( #171 ) ) ;
#203 = DIRECTION ( 'NONE',  ( -3.491481338843133355E-15, 2.449293598294706414E-16, -1.000000000000000000 ) ) ;
#204 = VERTEX_POINT ( 'NONE', #163 ) ;
#205 = DIRECTION ( 'NONE',  ( 3.491481338843133355E-15, -0.0000000000000000000, 1.000000000000000000 ) ) ;
#206 = CONICAL_SURFACE ( 'NONE', #208, 6.000000000000001776, 0.7853981633974392862 ) ;
#207 = CARTESIAN_POINT ( 'NONE',  ( 9.077851480992145462E-14, 1.836970198721031561E-15, 25.99999999999999645 ) ) ;
#208 = AXIS2_PLACEMENT_3D ( 'NONE', #138, #134, #197 ) ;
#209 = ORIENTED_EDGE ( 'NONE', *, *, #59, .F. ) ;
#210 = MECHANICAL_CONTEXT ( 'NONE', #21, 'mechanical' ) ;
#211 = ORIENTED_EDGE ( 'NONE', *, *, #164, .T. ) ;
#212 = ORIENTED_EDGE ( 'NONE', *, *, #19, .F. ) ;
#213 = AXIS2_PLACEMENT_3D ( 'NONE', #72, #123, #160 ) ;
#214 = CALENDAR_DATE ( 2021, 9, 12 ) ;
#215 = FACE_OUTER_BOUND ( 'NONE', #7, .T. ) ;
#216 = CARTESIAN_POINT ( 'NONE',  ( 2.583696190743918430E-13, -9.919639073093559622E-15, 74.00000000000000000 ) ) ;
#217 = CARTESIAN_POINT ( 'NONE',  ( 9.077851480992145462E-14, -5.999999999999988454, 25.99999999999999645 ) ) ;
#218 = AXIS2_PLACEMENT_3D ( 'NONE', #162, #221, #191 ) ;
#219 = DIRECTION ( 'NONE',  ( 3.491481338843133355E-15, -0.0000000000000000000, 1.000000000000000000 ) ) ;
#220 = CC_DESIGN_PERSON_AND_ORGANIZATION_ASSIGNMENT ( #6, #64, ( #141 ) ) ;
#221 = DIRECTION ( 'NONE',  ( 3.491481338843133355E-15, -0.0000000000000000000, 1.000000000000000000 ) ) ;
#222 = CARTESIAN_POINT ( 'NONE',  ( 6.982962677686268288E-15, 0.0000000000000000000, 2.000000000000000444 ) ) ;
#223 = CC_DESIGN_APPROVAL ( #200, ( #141 ) ) ;
ENDSEC;
END-ISO-10303-21;
