ISO-10303-21;
HEADER;
FILE_DESCRIPTION (( 'STEP AP203' ),
    '1' );
FILE_NAME ('392842.step',
    '2021-12-09T12:42:34',
    ( '' ),
    ( '' ),
    'SwSTEP 2.0',
    'SolidWorks 2019',
    '' );
FILE_SCHEMA (( 'CONFIG_CONTROL_DESIGN' ));
ENDSEC;

DATA;
#1 = DIRECTION ( 'NONE',  ( 3.491481338843133355E-15, 7.065269995080892042E-17, 1.000000000000000000 ) ) ;
#2 = PERSON_AND_ORGANIZATION ( #92, #5 ) ;
#3 = APPROVAL ( #195, 'UNSPECIFIED' ) ;
#4 = VERTEX_POINT ( 'NONE', #194 ) ;
#5 = ORGANIZATION ( 'UNSPECIFIED', 'UNSPECIFIED', '' ) ;
#6 = DIRECTION ( 'NONE',  ( 1.000000000000000000, 0.0000000000000000000, 0.0000000000000000000 ) ) ;
#7 = AXIS2_PLACEMENT_3D ( 'NONE', #118, #69, #70 ) ;
#8 = ADVANCED_FACE ( 'NONE', ( #145 ), #132, .F. ) ;
#9 = DATE_AND_TIME ( #95, #216 ) ;
#10 = LOCAL_TIME ( 13, 42, 34.00000000000000000, #60 ) ;
#11 = EDGE_CURVE ( 'NONE', #220, #220, #62, .T. ) ;
#12 = EDGE_LOOP ( 'NONE', ( #66 ) ) ;
#13 = ORIENTED_EDGE ( 'NONE', *, *, #155, .T. ) ;
#14 = AXIS2_PLACEMENT_3D ( 'NONE', #64, #184, #181 ) ;
#15 = ADVANCED_FACE ( 'NONE', ( #51, #207 ), #101, .T. ) ;
#16 = CARTESIAN_POINT ( 'NONE',  ( 9.077851480992145462E-14, 1.836970198721031561E-15, 25.99999999999999645 ) ) ;
#17 = VERTEX_POINT ( 'NONE', #222 ) ;
#18 = DIRECTION ( 'NONE',  ( 3.491481338843133355E-15, -2.449293598294706414E-16, 1.000000000000000000 ) ) ;
#19 = DIRECTION ( 'NONE',  ( 3.491481338843133355E-15, -0.0000000000000000000, 1.000000000000000000 ) ) ;
#20 = MANIFOLD_SOLID_BREP ( 'Corps-Déplacer/Copier1[1]', #206 ) ;
#21 = CARTESIAN_POINT ( 'NONE',  ( 5.237222008264701611E-15, 0.0000000000000000000, 1.500000000000000444 ) ) ;
#22 = AXIS2_PLACEMENT_3D ( 'NONE', #71, #148, #113 ) ;
#23 = PERSON_AND_ORGANIZATION_ROLE ( 'classification_officer' ) ;
#24 = PERSON_AND_ORGANIZATION_ROLE ( 'design_supplier' ) ;
#25 = CALENDAR_DATE ( 2021, 9, 12 ) ;
#26 = CC_DESIGN_APPROVAL ( #138, ( #56 ) ) ;
#27 = APPROVAL_DATE_TIME ( #212, #116 ) ;
#28 = PERSON_AND_ORGANIZATION ( #92, #5 ) ;
#29 = EDGE_CURVE ( 'NONE', #88, #88, #154, .T. ) ;
#30 = APPROVAL_DATE_TIME ( #34, #3 ) ;
#31 = ORIENTED_EDGE ( 'NONE', *, *, #29, .T. ) ;
#32 = CC_DESIGN_PERSON_AND_ORGANIZATION_ASSIGNMENT ( #107, #24, ( #56 ) ) ;
#33 = EDGE_CURVE ( 'NONE', #50, #50, #68, .T. ) ;
#34 = DATE_AND_TIME ( #183, #190 ) ;
#35 = CIRCLE ( 'NONE', #105, 6.000000000000000000 ) ;
#36 = CARTESIAN_POINT ( 'NONE',  ( 9.077851480992145462E-14, 1.836970198721031561E-15, 25.99999999999999645 ) ) ;
#37 = CARTESIAN_POINT ( 'NONE',  ( 5.237222008264701611E-15, 0.0000000000000000000, 1.500000000000000444 ) ) ;
#38 = AXIS2_PLACEMENT_3D ( 'NONE', #204, #137, #53 ) ;
#39 = PLANE ( 'NONE',  #158 ) ;
#40 = LOCAL_TIME ( 13, 42, 34.00000000000000000, #45 ) ;
#41 = DIRECTION ( 'NONE',  ( 1.000000000000000000, 0.0000000000000000000, -3.505587024369797538E-15 ) ) ;
#42 = CC_DESIGN_DATE_AND_TIME_ASSIGNMENT ( #74, #209, ( #131 ) ) ;
#43 =( NAMED_UNIT ( * ) SI_UNIT ( $, .STERADIAN. ) SOLID_ANGLE_UNIT ( ) );
#44 =( LENGTH_UNIT ( ) NAMED_UNIT ( * ) SI_UNIT ( .MILLI., .METRE. ) );
#45 = COORDINATED_UNIVERSAL_TIME_OFFSET ( 1, 0, .AHEAD. ) ;
#46 = APPROVAL_PERSON_ORGANIZATION ( #76, #138, #123 ) ;
#47 = SECURITY_CLASSIFICATION_LEVEL ( 'unclassified' ) ;
#48 = ORIENTED_EDGE ( 'NONE', *, *, #133, .T. ) ;
#49 = DIRECTION ( 'NONE',  ( 0.0000000000000000000, -1.000000000000000000, 0.0000000000000000000 ) ) ;
#50 = VERTEX_POINT ( 'NONE', #151 ) ;
#51 = FACE_OUTER_BOUND ( 'NONE', #146, .T. ) ;
#52 = FACE_OUTER_BOUND ( 'NONE', #110, .T. ) ;
#53 = DIRECTION ( 'NONE',  ( 0.0000000000000000000, 1.000000000000000000, 0.0000000000000000000 ) ) ;
#54 = ADVANCED_FACE ( 'NONE', ( #223 ), #172, .F. ) ;
#55 = DIRECTION ( 'NONE',  ( -8.551662891793917213E-31, -1.000000000000000000, -2.449293598294706414E-16 ) ) ;
#56 = PRODUCT_DEFINITION_FORMATION_WITH_SPECIFIED_SOURCE ( 'ANY', '', #89, .NOT_KNOWN. ) ;
#57 = CARTESIAN_POINT ( 'NONE',  ( 6.000000000000005329, 0.0000000000000000000, 1.499999999999979350 ) ) ;
#58 = DATE_AND_TIME ( #174, #40 ) ;
#59 = CALENDAR_DATE ( 2021, 9, 12 ) ;
#60 = COORDINATED_UNIVERSAL_TIME_OFFSET ( 1, 0, .AHEAD. ) ;
#61 = CIRCLE ( 'NONE', #153, 6.000000000000001776 ) ;
#62 = CIRCLE ( 'NONE', #124, 5.999999999999989342 ) ;
#63 = DATE_TIME_ROLE ( 'classification_date' ) ;
#64 = CARTESIAN_POINT ( 'NONE',  ( 2.583696190743918430E-13, -9.919639073093559622E-15, 74.00000000000000000 ) ) ;
#65 = DIRECTION ( 'NONE',  ( 3.491481338843133355E-15, -2.449293598294706414E-16, 1.000000000000000000 ) ) ;
#66 = ORIENTED_EDGE ( 'NONE', *, *, #29, .F. ) ;
#67 = CARTESIAN_POINT ( 'NONE',  ( 2.541798414677800578E-13, -9.625723841298188009E-15, 72.79999999999998295 ) ) ;
#68 = CIRCLE ( 'NONE', #141, 5.999999999999990230 ) ;
#69 = DIRECTION ( 'NONE',  ( -3.491481338843133355E-15, -7.065269995080892042E-17, -1.000000000000000000 ) ) ;
#70 = DIRECTION ( 'NONE',  ( -2.466825834171325237E-31, 1.000000000000000000, -7.065269995080892042E-17 ) ) ;
#71 = CARTESIAN_POINT ( 'NONE',  ( 1.514188661106529085E-30, 0.0000000000000000000, 4.336808689942017736E-16 ) ) ;
#72 = FACE_OUTER_BOUND ( 'NONE', #129, .T. ) ;
#73 = PERSON_AND_ORGANIZATION_ROLE ( 'creator' ) ;
#74 = DATE_AND_TIME ( #59, #10 ) ;
#75 = ADVANCED_FACE ( 'NONE', ( #87, #219 ), #83, .T. ) ;
#76 = PERSON_AND_ORGANIZATION ( #92, #5 ) ;
#77 = EDGE_LOOP ( 'NONE', ( #31 ) ) ;
#78 = ADVANCED_FACE ( 'NONE', ( #139 ), #86, .F. ) ;
#79 = EDGE_LOOP ( 'NONE', ( #200 ) ) ;
#80 = EDGE_LOOP ( 'NONE', ( #163 ) ) ;
#81 = AXIS2_PLACEMENT_3D ( 'NONE', #16, #91, #187 ) ;
#82 = CLOSED_SHELL ( 'NONE', ( #150, #54, #109, #78 ) ) ;
#83 = CONICAL_SURFACE ( 'NONE', #38, 6.000000000000001776, 0.7853981633974392862 ) ;
#84 = CC_DESIGN_DATE_AND_TIME_ASSIGNMENT ( #9, #63, ( #126 ) ) ;
#85 = APPLICATION_CONTEXT ( 'configuration controlled 3d designs of mechanical parts and assemblies' ) ;
#86 = PLANE ( 'NONE',  #120 ) ;
#87 = FACE_BOUND ( 'NONE', #130, .T. ) ;
#88 = VERTEX_POINT ( 'NONE', #203 ) ;
#89 = PRODUCT ( '392842', '392842', '', ( #157 ) ) ;
#90 = CARTESIAN_POINT ( 'NONE',  ( 2.583696190743918430E-13, -9.919639073093559622E-15, 74.00000000000000000 ) ) ;
#91 = DIRECTION ( 'NONE',  ( 3.491481338843133355E-15, 7.065269995080892042E-17, 1.000000000000000000 ) ) ;
#92 = PERSON ( 'UNSPECIFIED', 'UNSPECIFIED', 'UNSPECIFIED', ('UNSPECIFIED'), ('UNSPECIFIED'), ('UNSPECIFIED') ) ;
#93 = PERSON_AND_ORGANIZATION_ROLE ( 'design_owner' ) ;
#94 = LOCAL_TIME ( 13, 42, 34.00000000000000000, #97 ) ;
#95 = CALENDAR_DATE ( 2021, 9, 12 ) ;
#96 = DIRECTION ( 'NONE',  ( 0.0000000000000000000, 0.0000000000000000000, 1.000000000000000000 ) ) ;
#97 = COORDINATED_UNIVERSAL_TIME_OFFSET ( 1, 0, .AHEAD. ) ;
#98 = CC_DESIGN_APPROVAL ( #3, ( #126 ) ) ;
#99 = ORIENTED_EDGE ( 'NONE', *, *, #33, .F. ) ;
#100 = DIRECTION ( 'NONE',  ( 2.466825834171325237E-31, -1.000000000000000000, 7.065269995080892042E-17 ) ) ;
#101 = CYLINDRICAL_SURFACE ( 'NONE', #185, 5.999999999999996447 ) ;
#102 = DIRECTION ( 'NONE',  ( 3.491481338843133355E-15, 7.065269995080892042E-17, 1.000000000000000000 ) ) ;
#103 = DIRECTION ( 'NONE',  ( 3.491481338843133355E-15, -2.449293598294706414E-16, 1.000000000000000000 ) ) ;
#104 = ADVANCED_FACE ( 'NONE', ( #72 ), #39, .F. ) ;
#105 = AXIS2_PLACEMENT_3D ( 'NONE', #37, #19, #41 ) ;
#106 = EDGE_CURVE ( 'NONE', #17, #17, #108, .T. ) ;
#107 = PERSON_AND_ORGANIZATION ( #92, #5 ) ;
#108 = CIRCLE ( 'NONE', #199, 4.800000000000003375 ) ;
#109 = ADVANCED_FACE ( 'NONE', ( #173, #152 ), #167, .T. ) ;
#110 = EDGE_LOOP ( 'NONE', ( #48 ) ) ;
#111 = EDGE_LOOP ( 'NONE', ( #202 ) ) ;
#112 = APPROVAL_PERSON_ORGANIZATION ( #2, #116, #210 ) ;
#113 = DIRECTION ( 'NONE',  ( 1.000000000000000000, 0.0000000000000000000, -3.491481338843133355E-15 ) ) ;
#114 = CARTESIAN_POINT ( 'NONE',  ( 2.583696190743918430E-13, -9.919639073093559622E-15, 74.00000000000000000 ) ) ;
#115 = CARTESIAN_POINT ( 'NONE',  ( 9.077851480992145462E-14, 1.836970198721031561E-15, 25.99999999999999645 ) ) ;
#116 = APPROVAL ( #175, 'UNSPECIFIED' ) ;
#117 = DIRECTION ( 'NONE',  ( 0.0000000000000000000, -1.000000000000000000, 0.0000000000000000000 ) ) ;
#118 = CARTESIAN_POINT ( 'NONE',  ( 9.077851480992145462E-14, 1.836970198721031561E-15, 25.99999999999999645 ) ) ;
#119 = PERSON_AND_ORGANIZATION ( #92, #5 ) ;
#120 = AXIS2_PLACEMENT_3D ( 'NONE', #188, #1, #100 ) ;
#121 = CARTESIAN_POINT ( 'NONE',  ( 0.0000000000000000000, 0.0000000000000000000, 0.0000000000000000000 ) ) ;
#122 = APPROVAL_STATUS ( 'not_yet_approved' ) ;
#123 = APPROVAL_ROLE ( '' ) ;
#124 = AXIS2_PLACEMENT_3D ( 'NONE', #217, #65, #49 ) ;
#125 = PERSON_AND_ORGANIZATION ( #92, #5 ) ;
#126 = SECURITY_CLASSIFICATION ( '', '', #47 ) ;
#127 = PRODUCT_RELATED_PRODUCT_CATEGORY ( 'detail', '', ( #89 ) ) ;
#128 = SHAPE_DEFINITION_REPRESENTATION ( #160, #178 ) ;
#129 = EDGE_LOOP ( 'NONE', ( #180 ) ) ;
#130 = EDGE_LOOP ( 'NONE', ( #197 ) ) ;
#131 = PRODUCT_DEFINITION ( 'UNKNOWN', '', #56, #136 ) ;
#132 = PLANE ( 'NONE',  #14 ) ;
#133 = EDGE_CURVE ( 'NONE', #142, #142, #35, .T. ) ;
#134 = CARTESIAN_POINT ( 'NONE',  ( 9.077851480992145462E-14, -5.999999999999987566, 25.99999999999999645 ) ) ;
#135 = DIRECTION ( 'NONE',  ( 0.0000000000000000000, -1.000000000000000000, 0.0000000000000000000 ) ) ;
#136 = DESIGN_CONTEXT ( 'detailed design', #85, 'design' ) ;
#137 = DIRECTION ( 'NONE',  ( -3.491481338843133355E-15, 2.449293598294706414E-16, -1.000000000000000000 ) ) ;
#138 = APPROVAL ( #122, 'UNSPECIFIED' ) ;
#139 = FACE_OUTER_BOUND ( 'NONE', #12, .T. ) ;
#140 = DIRECTION ( 'NONE',  ( 3.491481338843133355E-15, -2.449293598294706414E-16, 1.000000000000000000 ) ) ;
#141 = AXIS2_PLACEMENT_3D ( 'NONE', #115, #102, #135 ) ;
#142 = VERTEX_POINT ( 'NONE', #57 ) ;
#143 = CC_DESIGN_APPROVAL ( #116, ( #131 ) ) ;
#144 = COORDINATED_UNIVERSAL_TIME_OFFSET ( 1, 0, .AHEAD. ) ;
#145 = FACE_OUTER_BOUND ( 'NONE', #80, .T. ) ;
#146 = EDGE_LOOP ( 'NONE', ( #215 ) ) ;
#147 = EDGE_LOOP ( 'NONE', ( #13 ) ) ;
#148 = DIRECTION ( 'NONE',  ( 3.491481338843133355E-15, -0.0000000000000000000, 1.000000000000000000 ) ) ;
#149 = AXIS2_PLACEMENT_3D ( 'NONE', #121, #96, #6 ) ;
#150 = ADVANCED_FACE ( 'NONE', ( #168, #52 ), #171, .T. ) ;
#151 = CARTESIAN_POINT ( 'NONE',  ( 9.077851480992145462E-14, -5.999999999999988454, 25.99999999999999645 ) ) ;
#152 = FACE_OUTER_BOUND ( 'NONE', #111, .T. ) ;
#153 = AXIS2_PLACEMENT_3D ( 'NONE', #67, #18, #186 ) ;
#154 = CIRCLE ( 'NONE', #22, 4.500000000000000888 ) ;
#155 = EDGE_CURVE ( 'NONE', #4, #4, #61, .T. ) ;
#156 = APPLICATION_PROTOCOL_DEFINITION ( 'international standard', 'config_control_design', 1994, #179 ) ;
#157 = MECHANICAL_CONTEXT ( 'NONE', #179, 'mechanical' ) ;
#158 = AXIS2_PLACEMENT_3D ( 'NONE', #36, #140, #55 ) ;
#159 = PERSON_AND_ORGANIZATION ( #92, #5 ) ;
#160 = PRODUCT_DEFINITION_SHAPE ( 'NONE', 'NONE',  #131 ) ;
#161 = APPROVAL_PERSON_ORGANIZATION ( #125, #3, #196 ) ;
#162 = CC_DESIGN_PERSON_AND_ORGANIZATION_ASSIGNMENT ( #214, #93, ( #89 ) ) ;
#163 = ORIENTED_EDGE ( 'NONE', *, *, #106, .T. ) ;
#164 = MANIFOLD_SOLID_BREP ( 'Corps-Déplacer/Copier1[2]', #82 ) ;
#165 = CC_DESIGN_SECURITY_CLASSIFICATION ( #126, ( #56 ) ) ;
#166 = CC_DESIGN_PERSON_AND_ORGANIZATION_ASSIGNMENT ( #119, #191, ( #56 ) ) ;
#167 = TOROIDAL_SURFACE ( 'NONE', #213, 4.500000000000000888, 1.499999999999999778 ) ;
#168 = FACE_OUTER_BOUND ( 'NONE', #182, .T. ) ;
#169 = DIRECTION ( 'NONE',  ( 1.000000000000000000, 0.0000000000000000000, -3.491481338843133355E-15 ) ) ;
#170 = CC_DESIGN_PERSON_AND_ORGANIZATION_ASSIGNMENT ( #159, #73, ( #131 ) ) ;
#171 = CYLINDRICAL_SURFACE ( 'NONE', #81, 5.999999999999991118 ) ;
#172 = PLANE ( 'NONE',  #7 ) ;
#173 = FACE_OUTER_BOUND ( 'NONE', #77, .T. ) ;
#174 = CALENDAR_DATE ( 2021, 9, 12 ) ;
#175 = APPROVAL_STATUS ( 'not_yet_approved' ) ;
#176 = COORDINATED_UNIVERSAL_TIME_OFFSET ( 1, 0, .AHEAD. ) ;
#177 =( NAMED_UNIT ( * ) PLANE_ANGLE_UNIT ( ) SI_UNIT ( $, .RADIAN. ) );
#178 = ADVANCED_BREP_SHAPE_REPRESENTATION ( '392842', ( #20, #164, #149 ), #201 ) ;
#179 = APPLICATION_CONTEXT ( 'configuration controlled 3d designs of mechanical parts and assemblies' ) ;
#180 = ORIENTED_EDGE ( 'NONE', *, *, #11, .F. ) ;
#181 = DIRECTION ( 'NONE',  ( 8.551662891793917213E-31, 1.000000000000000000, 2.449293598294706414E-16 ) ) ;
#182 = EDGE_LOOP ( 'NONE', ( #99 ) ) ;
#183 = CALENDAR_DATE ( 2021, 9, 12 ) ;
#184 = DIRECTION ( 'NONE',  ( -3.491481338843133355E-15, 2.449293598294706414E-16, -1.000000000000000000 ) ) ;
#185 = AXIS2_PLACEMENT_3D ( 'NONE', #90, #103, #208 ) ;
#186 = DIRECTION ( 'NONE',  ( 0.0000000000000000000, -1.000000000000000000, 0.0000000000000000000 ) ) ;
#187 = DIRECTION ( 'NONE',  ( 0.0000000000000000000, -1.000000000000000000, 0.0000000000000000000 ) ) ;
#188 = CARTESIAN_POINT ( 'NONE',  ( -7.400477502513966078E-31, 5.999999999999992006, -2.119580998524264778E-16 ) ) ;
#189 = DIRECTION ( 'NONE',  ( 3.491481338843133355E-15, -0.0000000000000000000, 1.000000000000000000 ) ) ;
#190 = LOCAL_TIME ( 13, 42, 34.00000000000000000, #144 ) ;
#191 = PERSON_AND_ORGANIZATION_ROLE ( 'creator' ) ;
#192 = APPROVAL_DATE_TIME ( #58, #138 ) ;
#193 = APPLICATION_PROTOCOL_DEFINITION ( 'international standard', 'config_control_design', 1994, #85 ) ;
#194 = CARTESIAN_POINT ( 'NONE',  ( 2.541798414677800578E-13, -6.000000000000011546, 72.79999999999998295 ) ) ;
#195 = APPROVAL_STATUS ( 'not_yet_approved' ) ;
#196 = APPROVAL_ROLE ( '' ) ;
#197 = ORIENTED_EDGE ( 'NONE', *, *, #106, .F. ) ;
#198 = ORIENTED_EDGE ( 'NONE', *, *, #33, .T. ) ;
#199 = AXIS2_PLACEMENT_3D ( 'NONE', #114, #205, #117 ) ;
#200 = ORIENTED_EDGE ( 'NONE', *, *, #11, .T. ) ;
#201 =( GEOMETRIC_REPRESENTATION_CONTEXT ( 3 ) GLOBAL_UNCERTAINTY_ASSIGNED_CONTEXT ( ( #221 ) ) GLOBAL_UNIT_ASSIGNED_CONTEXT ( ( #44, #177, #43 ) ) REPRESENTATION_CONTEXT ( 'NONE', 'WORKASPACE' ) );
#202 = ORIENTED_EDGE ( 'NONE', *, *, #133, .F. ) ;
#203 = CARTESIAN_POINT ( 'NONE',  ( 4.500000000000000888, 0.0000000000000000000, -1.527798515579990148E-14 ) ) ;
#204 = CARTESIAN_POINT ( 'NONE',  ( 2.541798414677800578E-13, -9.625723841298188009E-15, 72.79999999999998295 ) ) ;
#205 = DIRECTION ( 'NONE',  ( 3.491481338843133355E-15, -2.449293598294706414E-16, 1.000000000000000000 ) ) ;
#206 = CLOSED_SHELL ( 'NONE', ( #104, #15, #75, #8 ) ) ;
#207 = FACE_OUTER_BOUND ( 'NONE', #79, .T. ) ;
#208 = DIRECTION ( 'NONE',  ( 0.0000000000000000000, -1.000000000000000000, 0.0000000000000000000 ) ) ;
#209 = DATE_TIME_ROLE ( 'creation_date' ) ;
#210 = APPROVAL_ROLE ( '' ) ;
#211 = CC_DESIGN_PERSON_AND_ORGANIZATION_ASSIGNMENT ( #28, #23, ( #126 ) ) ;
#212 = DATE_AND_TIME ( #25, #94 ) ;
#213 = AXIS2_PLACEMENT_3D ( 'NONE', #21, #189, #169 ) ;
#214 = PERSON_AND_ORGANIZATION ( #92, #5 ) ;
#215 = ORIENTED_EDGE ( 'NONE', *, *, #155, .F. ) ;
#216 = LOCAL_TIME ( 13, 42, 34.00000000000000000, #176 ) ;
#217 = CARTESIAN_POINT ( 'NONE',  ( 9.077851480992145462E-14, 1.836970198721031955E-15, 25.99999999999999645 ) ) ;
#218 = EDGE_LOOP ( 'NONE', ( #198 ) ) ;
#219 = FACE_OUTER_BOUND ( 'NONE', #147, .T. ) ;
#220 = VERTEX_POINT ( 'NONE', #134 ) ;
#221 = UNCERTAINTY_MEASURE_WITH_UNIT (LENGTH_MEASURE( 1.000000000000000082E-05 ), #44, 'distance_accuracy_value', 'NONE');
#222 = CARTESIAN_POINT ( 'NONE',  ( 2.583696190743918430E-13, -4.800000000000012257, 74.00000000000000000 ) ) ;
#223 = FACE_OUTER_BOUND ( 'NONE', #218, .T. ) ;
ENDSEC;
END-ISO-10303-21;
