ISO-10303-21;
HEADER;
FILE_DESCRIPTION (( 'STEP AP203' ),
    '1' );
FILE_NAME ('392841.step',
    '2021-12-09T12:42:33',
    ( '' ),
    ( '' ),
    'SwSTEP 2.0',
    'SolidWorks 2019',
    '' );
FILE_SCHEMA (( 'CONFIG_CONTROL_DESIGN' ));
ENDSEC;

DATA;
#1 = EDGE_LOOP ( 'NONE', ( #90 ) ) ;
#2 = ADVANCED_FACE ( 'NONE', ( #92 ), #95, .F. ) ;
#3 = CC_DESIGN_APPROVAL ( #38, ( #104 ) ) ;
#4 = PLANE ( 'NONE',  #149 ) ;
#5 = CARTESIAN_POINT ( 'NONE',  ( 9.077851480992145462E-14, 1.836970198721031955E-15, 25.99999999999999645 ) ) ;
#6 = ORIENTED_EDGE ( 'NONE', *, *, #72, .T. ) ;
#7 = LOCAL_TIME ( 13, 42, 33.00000000000000000, #168 ) ;
#8 = CARTESIAN_POINT ( 'NONE',  ( 9.077851480992145462E-14, -5.999999999999987566, 25.99999999999999645 ) ) ;
#9 = PRODUCT ( '392841', '392841', '', ( #83 ) ) ;
#10 = CARTESIAN_POINT ( 'NONE',  ( 9.077851480992145462E-14, -5.999999999999988454, 25.99999999999999645 ) ) ;
#11 = CARTESIAN_POINT ( 'NONE',  ( 5.000000000000000000, 0.0000000000000000000, -1.745740669421566678E-14 ) ) ;
#12 = ADVANCED_FACE ( 'NONE', ( #28 ), #4, .F. ) ;
#13 = DIRECTION ( 'NONE',  ( 3.491481338843133355E-15, -2.449293598294706414E-16, 1.000000000000000000 ) ) ;
#14 = DATE_AND_TIME ( #164, #129 ) ;
#15 = CIRCLE ( 'NONE', #166, 6.000000000000001776 ) ;
#16 = DATE_TIME_ROLE ( 'creation_date' ) ;
#17 = PERSON_AND_ORGANIZATION_ROLE ( 'classification_officer' ) ;
#18 = COORDINATED_UNIVERSAL_TIME_OFFSET ( 1, 0, .AHEAD. ) ;
#19 = APPROVAL_DATE_TIME ( #68, #38 ) ;
#20 = COORDINATED_UNIVERSAL_TIME_OFFSET ( 1, 0, .AHEAD. ) ;
#21 = PRODUCT_DEFINITION_FORMATION_WITH_SPECIFIED_SOURCE ( 'ANY', '', #9, .NOT_KNOWN. ) ;
#22 = EDGE_CURVE ( 'NONE', #34, #34, #26, .T. ) ;
#23 = PERSON_AND_ORGANIZATION ( #109, #178 ) ;
#24 = EDGE_LOOP ( 'NONE', ( #27 ) ) ;
#25 = DIRECTION ( 'NONE',  ( 3.491481338843133355E-15, 7.065269995080894507E-17, 1.000000000000000000 ) ) ;
#26 = CIRCLE ( 'NONE', #55, 4.800000000000003375 ) ;
#27 = ORIENTED_EDGE ( 'NONE', *, *, #111, .F. ) ;
#28 = FACE_OUTER_BOUND ( 'NONE', #43, .T. ) ;
#29 = EDGE_LOOP ( 'NONE', ( #141 ) ) ;
#30 = ADVANCED_BREP_SHAPE_REPRESENTATION ( '392841', ( #47, #45, #62 ), #53 ) ;
#31 = DIRECTION ( 'NONE',  ( 3.491481338843133355E-15, -2.449293598294706414E-16, 1.000000000000000000 ) ) ;
#32 = DIRECTION ( 'NONE',  ( 0.0000000000000000000, -1.000000000000000000, 0.0000000000000000000 ) ) ;
#33 = VERTEX_POINT ( 'NONE', #8 ) ;
#34 = VERTEX_POINT ( 'NONE', #101 ) ;
#35 = APPROVAL_DATE_TIME ( #14, #100 ) ;
#36 = CALENDAR_DATE ( 2021, 9, 12 ) ;
#37 = ADVANCED_FACE ( 'NONE', ( #125, #94 ), #145, .T. ) ;
#38 = APPROVAL ( #85, 'UNSPECIFIED' ) ;
#39 = CLOSED_SHELL ( 'NONE', ( #209, #12, #37, #2 ) ) ;
#40 = CALENDAR_DATE ( 2021, 9, 12 ) ;
#41 = AXIS2_PLACEMENT_3D ( 'NONE', #176, #163, #32 ) ;
#42 = EDGE_LOOP ( 'NONE', ( #58 ) ) ;
#43 = EDGE_LOOP ( 'NONE', ( #6 ) ) ;
#44 = ORIENTED_EDGE ( 'NONE', *, *, #159, .T. ) ;
#45 = MANIFOLD_SOLID_BREP ( 'Corps-Déplacer/Copier1[2]', #39 ) ;
#46 = EDGE_LOOP ( 'NONE', ( #112 ) ) ;
#47 = MANIFOLD_SOLID_BREP ( 'Corps-Déplacer/Copier1[1]', #162 ) ;
#48 = APPLICATION_CONTEXT ( 'configuration controlled 3d designs of mechanical parts and assemblies' ) ;
#49 = VERTEX_POINT ( 'NONE', #10 ) ;
#50 = DIRECTION ( 'NONE',  ( 0.0000000000000000000, 1.000000000000000000, 0.0000000000000000000 ) ) ;
#51 = DIRECTION ( 'NONE',  ( 1.000000000000000000, 0.0000000000000000000, -3.505587024369797538E-15 ) ) ;
#52 = DIRECTION ( 'NONE',  ( 0.0000000000000000000, 0.0000000000000000000, 1.000000000000000000 ) ) ;
#53 =( GEOMETRIC_REPRESENTATION_CONTEXT ( 3 ) GLOBAL_UNCERTAINTY_ASSIGNED_CONTEXT ( ( #87 ) ) GLOBAL_UNIT_ASSIGNED_CONTEXT ( ( #133, #143, #214 ) ) REPRESENTATION_CONTEXT ( 'NONE', 'WORKASPACE' ) );
#54 = EDGE_CURVE ( 'NONE', #33, #33, #205, .T. ) ;
#55 = AXIS2_PLACEMENT_3D ( 'NONE', #208, #124, #156 ) ;
#56 = DIRECTION ( 'NONE',  ( 0.0000000000000000000, -1.000000000000000000, 0.0000000000000000000 ) ) ;
#57 = DIRECTION ( 'NONE',  ( -3.491481338843133355E-15, -7.065269995080894507E-17, -1.000000000000000000 ) ) ;
#58 = ORIENTED_EDGE ( 'NONE', *, *, #72, .F. ) ;
#59 = CC_DESIGN_PERSON_AND_ORGANIZATION_ASSIGNMENT ( #67, #102, ( #21 ) ) ;
#60 = EDGE_LOOP ( 'NONE', ( #158 ) ) ;
#61 = CARTESIAN_POINT ( 'NONE',  ( 3.491481338843134933E-15, 0.0000000000000000000, 1.000000000000000444 ) ) ;
#62 = AXIS2_PLACEMENT_3D ( 'NONE', #200, #52, #86 ) ;
#63 = FACE_BOUND ( 'NONE', #29, .T. ) ;
#64 = CARTESIAN_POINT ( 'NONE',  ( 9.077851480992145462E-14, 1.836970198721032350E-15, 25.99999999999999645 ) ) ;
#65 = CYLINDRICAL_SURFACE ( 'NONE', #189, 5.999999999999996447 ) ;
#66 = PERSON_AND_ORGANIZATION ( #109, #178 ) ;
#67 = PERSON_AND_ORGANIZATION ( #109, #178 ) ;
#68 = DATE_AND_TIME ( #203, #7 ) ;
#69 = APPROVAL_ROLE ( '' ) ;
#70 = PRODUCT_DEFINITION ( 'UNKNOWN', '', #21, #202 ) ;
#71 = AXIS2_PLACEMENT_3D ( 'NONE', #64, #31, #195 ) ;
#72 = EDGE_CURVE ( 'NONE', #49, #49, #211, .T. ) ;
#73 = DIRECTION ( 'NONE',  ( -2.466825834171326113E-31, 1.000000000000000000, -7.065269995080894507E-17 ) ) ;
#74 = ORIENTED_EDGE ( 'NONE', *, *, #93, .T. ) ;
#75 = CARTESIAN_POINT ( 'NONE',  ( 9.077851480992145462E-14, 1.836970198721032350E-15, 25.99999999999999645 ) ) ;
#76 = CC_DESIGN_PERSON_AND_ORGANIZATION_ASSIGNMENT ( #84, #137, ( #21 ) ) ;
#77 = LOCAL_TIME ( 13, 42, 33.00000000000000000, #182 ) ;
#78 = VERTEX_POINT ( 'NONE', #11 ) ;
#79 = FACE_OUTER_BOUND ( 'NONE', #1, .T. ) ;
#80 = FACE_OUTER_BOUND ( 'NONE', #42, .T. ) ;
#81 = VERTEX_POINT ( 'NONE', #161 ) ;
#82 = FACE_OUTER_BOUND ( 'NONE', #60, .T. ) ;
#83 = MECHANICAL_CONTEXT ( 'NONE', #106, 'mechanical' ) ;
#84 = PERSON_AND_ORGANIZATION ( #109, #178 ) ;
#85 = APPROVAL_STATUS ( 'not_yet_approved' ) ;
#86 = DIRECTION ( 'NONE',  ( 1.000000000000000000, 0.0000000000000000000, 0.0000000000000000000 ) ) ;
#87 = UNCERTAINTY_MEASURE_WITH_UNIT (LENGTH_MEASURE( 1.000000000000000082E-05 ), #133, 'distance_accuracy_value', 'NONE');
#88 = APPROVAL_PERSON_ORGANIZATION ( #201, #132, #69 ) ;
#89 = ORIENTED_EDGE ( 'NONE', *, *, #111, .T. ) ;
#90 = ORIENTED_EDGE ( 'NONE', *, *, #54, .T. ) ;
#91 = CONICAL_SURFACE ( 'NONE', #123, 6.000000000000001776, 0.7853981633974392862 ) ;
#92 = FACE_OUTER_BOUND ( 'NONE', #46, .T. ) ;
#93 = EDGE_CURVE ( 'NONE', #144, #144, #15, .T. ) ;
#94 = FACE_OUTER_BOUND ( 'NONE', #24, .T. ) ;
#95 = PLANE ( 'NONE',  #185 ) ;
#96 = CARTESIAN_POINT ( 'NONE',  ( 2.541798414677800578E-13, -6.000000000000011546, 72.79999999999998295 ) ) ;
#97 = APPLICATION_PROTOCOL_DEFINITION ( 'international standard', 'config_control_design', 1994, #106 ) ;
#98 = FACE_OUTER_BOUND ( 'NONE', #191, .T. ) ;
#99 = CARTESIAN_POINT ( 'NONE',  ( 0.0000000000000000000, 0.0000000000000000000, 0.0000000000000000000 ) ) ;
#100 = APPROVAL ( #151, 'UNSPECIFIED' ) ;
#101 = CARTESIAN_POINT ( 'NONE',  ( 2.583696190743918430E-13, -4.800000000000012257, 74.00000000000000000 ) ) ;
#102 = PERSON_AND_ORGANIZATION_ROLE ( 'creator' ) ;
#103 = CIRCLE ( 'NONE', #128, 6.000000000000000000 ) ;
#104 = SECURITY_CLASSIFICATION ( '', '', #152 ) ;
#105 = APPROVAL_ROLE ( '' ) ;
#106 = APPLICATION_CONTEXT ( 'configuration controlled 3d designs of mechanical parts and assemblies' ) ;
#107 = DATE_TIME_ROLE ( 'classification_date' ) ;
#108 = APPROVAL_PERSON_ORGANIZATION ( #23, #38, #122 ) ;
#109 = PERSON ( 'UNSPECIFIED', 'UNSPECIFIED', 'UNSPECIFIED', ('UNSPECIFIED'), ('UNSPECIFIED'), ('UNSPECIFIED') ) ;
#110 = EDGE_LOOP ( 'NONE', ( #210 ) ) ;
#111 = EDGE_CURVE ( 'NONE', #81, #81, #103, .T. ) ;
#112 = ORIENTED_EDGE ( 'NONE', *, *, #159, .F. ) ;
#113 = APPROVAL_PERSON_ORGANIZATION ( #66, #100, #105 ) ;
#114 = PLANE ( 'NONE',  #71 ) ;
#115 = CC_DESIGN_APPROVAL ( #132, ( #70 ) ) ;
#116 = CARTESIAN_POINT ( 'NONE',  ( 2.541798414677800578E-13, -9.625723841298188009E-15, 72.79999999999998295 ) ) ;
#117 = DIRECTION ( 'NONE',  ( -3.491481338843133355E-15, 2.449293598294706414E-16, -1.000000000000000000 ) ) ;
#118 = CC_DESIGN_DATE_AND_TIME_ASSIGNMENT ( #219, #16, ( #70 ) ) ;
#119 = PRODUCT_DEFINITION_SHAPE ( 'NONE', 'NONE',  #70 ) ;
#120 = AXIS2_PLACEMENT_3D ( 'NONE', #187, #139, #206 ) ;
#121 = FACE_OUTER_BOUND ( 'NONE', #110, .T. ) ;
#122 = APPROVAL_ROLE ( '' ) ;
#123 = AXIS2_PLACEMENT_3D ( 'NONE', #116, #194, #50 ) ;
#124 = DIRECTION ( 'NONE',  ( 3.491481338843133355E-15, -2.449293598294706414E-16, 1.000000000000000000 ) ) ;
#125 = FACE_OUTER_BOUND ( 'NONE', #126, .T. ) ;
#126 = EDGE_LOOP ( 'NONE', ( #44 ) ) ;
#127 = CYLINDRICAL_SURFACE ( 'NONE', #41, 5.999999999999991118 ) ;
#128 = AXIS2_PLACEMENT_3D ( 'NONE', #61, #218, #51 ) ;
#129 = LOCAL_TIME ( 13, 42, 33.00000000000000000, #222 ) ;
#130 = ADVANCED_FACE ( 'NONE', ( #121, #79 ), #65, .T. ) ;
#131 = DIRECTION ( 'NONE',  ( 3.491481338843133355E-15, -2.449293598294706414E-16, 1.000000000000000000 ) ) ;
#132 = APPROVAL ( #136, 'UNSPECIFIED' ) ;
#133 =( LENGTH_UNIT ( ) NAMED_UNIT ( * ) SI_UNIT ( .MILLI., .METRE. ) );
#134 = DIRECTION ( 'NONE',  ( 1.000000000000000000, 0.0000000000000000000, -3.491481338843133355E-15 ) ) ;
#135 = PERSON_AND_ORGANIZATION_ROLE ( 'design_owner' ) ;
#136 = APPROVAL_STATUS ( 'not_yet_approved' ) ;
#137 = PERSON_AND_ORGANIZATION_ROLE ( 'design_supplier' ) ;
#138 = DIRECTION ( 'NONE',  ( 3.491481338843133355E-15, -0.0000000000000000000, 1.000000000000000000 ) ) ;
#139 = DIRECTION ( 'NONE',  ( 3.491481338843133355E-15, 7.065269995080894507E-17, 1.000000000000000000 ) ) ;
#140 = EDGE_LOOP ( 'NONE', ( #171 ) ) ;
#141 = ORIENTED_EDGE ( 'NONE', *, *, #22, .F. ) ;
#142 = LOCAL_TIME ( 13, 42, 33.00000000000000000, #20 ) ;
#143 =( NAMED_UNIT ( * ) PLANE_ANGLE_UNIT ( ) SI_UNIT ( $, .RADIAN. ) );
#144 = VERTEX_POINT ( 'NONE', #96 ) ;
#145 = TOROIDAL_SURFACE ( 'NONE', #183, 5.000000000000000000, 1.000000000000000222 ) ;
#146 = FACE_OUTER_BOUND ( 'NONE', #140, .T. ) ;
#147 = CARTESIAN_POINT ( 'NONE',  ( 2.541798414677800578E-13, -9.625723841298188009E-15, 72.79999999999998295 ) ) ;
#148 = PERSON_AND_ORGANIZATION ( #109, #178 ) ;
#149 = AXIS2_PLACEMENT_3D ( 'NONE', #75, #57, #73 ) ;
#150 = APPROVAL_DATE_TIME ( #167, #132 ) ;
#151 = APPROVAL_STATUS ( 'not_yet_approved' ) ;
#152 = SECURITY_CLASSIFICATION_LEVEL ( 'unclassified' ) ;
#153 = CC_DESIGN_DATE_AND_TIME_ASSIGNMENT ( #221, #107, ( #104 ) ) ;
#154 = AXIS2_PLACEMENT_3D ( 'NONE', #179, #117, #193 ) ;
#155 = DIRECTION ( 'NONE',  ( 2.466825834171326113E-31, -1.000000000000000000, 7.065269995080894507E-17 ) ) ;
#156 = DIRECTION ( 'NONE',  ( 0.0000000000000000000, -1.000000000000000000, 0.0000000000000000000 ) ) ;
#157 = CARTESIAN_POINT ( 'NONE',  ( 3.491481338843134933E-15, 0.0000000000000000000, 1.000000000000000444 ) ) ;
#158 = ORIENTED_EDGE ( 'NONE', *, *, #22, .T. ) ;
#159 = EDGE_CURVE ( 'NONE', #78, #78, #170, .T. ) ;
#160 = CARTESIAN_POINT ( 'NONE',  ( 2.583696190743918430E-13, -9.919639073093559622E-15, 74.00000000000000000 ) ) ;
#161 = CARTESIAN_POINT ( 'NONE',  ( 6.000000000000003553, 0.0000000000000000000, 0.9999999999999794609 ) ) ;
#162 = CLOSED_SHELL ( 'NONE', ( #199, #130, #207, #217 ) ) ;
#163 = DIRECTION ( 'NONE',  ( 3.491481338843133355E-15, 7.065269995080894507E-17, 1.000000000000000000 ) ) ;
#164 = CALENDAR_DATE ( 2021, 9, 12 ) ;
#165 = PERSON_AND_ORGANIZATION ( #109, #178 ) ;
#166 = AXIS2_PLACEMENT_3D ( 'NONE', #147, #13, #174 ) ;
#167 = DATE_AND_TIME ( #220, #77 ) ;
#168 = COORDINATED_UNIVERSAL_TIME_OFFSET ( 1, 0, .AHEAD. ) ;
#169 = CC_DESIGN_PERSON_AND_ORGANIZATION_ASSIGNMENT ( #181, #17, ( #104 ) ) ;
#170 = CIRCLE ( 'NONE', #223, 5.000000000000000000 ) ;
#171 = ORIENTED_EDGE ( 'NONE', *, *, #54, .F. ) ;
#172 = CARTESIAN_POINT ( 'NONE',  ( -7.400477502513968705E-31, 5.999999999999992006, -2.119580998524265517E-16 ) ) ;
#173 = PRODUCT_RELATED_PRODUCT_CATEGORY ( 'detail', '', ( #9 ) ) ;
#174 = DIRECTION ( 'NONE',  ( 0.0000000000000000000, -1.000000000000000000, 0.0000000000000000000 ) ) ;
#175 = DIRECTION ( 'NONE',  ( 3.491481338843133355E-15, -0.0000000000000000000, 1.000000000000000000 ) ) ;
#176 = CARTESIAN_POINT ( 'NONE',  ( 9.077851480992145462E-14, 1.836970198721032350E-15, 25.99999999999999645 ) ) ;
#177 = PLANE ( 'NONE',  #154 ) ;
#178 = ORGANIZATION ( 'UNSPECIFIED', 'UNSPECIFIED', '' ) ;
#179 = CARTESIAN_POINT ( 'NONE',  ( 2.583696190743918430E-13, -9.919639073093559622E-15, 74.00000000000000000 ) ) ;
#180 = APPLICATION_PROTOCOL_DEFINITION ( 'international standard', 'config_control_design', 1994, #48 ) ;
#181 = PERSON_AND_ORGANIZATION ( #109, #178 ) ;
#182 = COORDINATED_UNIVERSAL_TIME_OFFSET ( 1, 0, .AHEAD. ) ;
#183 = AXIS2_PLACEMENT_3D ( 'NONE', #157, #138, #204 ) ;
#184 = CC_DESIGN_SECURITY_CLASSIFICATION ( #104, ( #21 ) ) ;
#185 = AXIS2_PLACEMENT_3D ( 'NONE', #172, #25, #155 ) ;
#186 = CC_DESIGN_APPROVAL ( #100, ( #21 ) ) ;
#187 = CARTESIAN_POINT ( 'NONE',  ( 9.077851480992145462E-14, 1.836970198721032350E-15, 25.99999999999999645 ) ) ;
#188 = EDGE_LOOP ( 'NONE', ( #74 ) ) ;
#189 = AXIS2_PLACEMENT_3D ( 'NONE', #160, #131, #216 ) ;
#190 = CC_DESIGN_PERSON_AND_ORGANIZATION_ASSIGNMENT ( #165, #135, ( #9 ) ) ;
#191 = EDGE_LOOP ( 'NONE', ( #89 ) ) ;
#192 = AXIS2_PLACEMENT_3D ( 'NONE', #5, #213, #56 ) ;
#193 = DIRECTION ( 'NONE',  ( 8.551662891793917213E-31, 1.000000000000000000, 2.449293598294706414E-16 ) ) ;
#194 = DIRECTION ( 'NONE',  ( -3.491481338843133355E-15, 2.449293598294706414E-16, -1.000000000000000000 ) ) ;
#195 = DIRECTION ( 'NONE',  ( -8.551662891793917213E-31, -1.000000000000000000, -2.449293598294706414E-16 ) ) ;
#196 = CC_DESIGN_PERSON_AND_ORGANIZATION_ASSIGNMENT ( #148, #197, ( #70 ) ) ;
#197 = PERSON_AND_ORGANIZATION_ROLE ( 'creator' ) ;
#198 = SHAPE_DEFINITION_REPRESENTATION ( #119, #30 ) ;
#199 = ADVANCED_FACE ( 'NONE', ( #146 ), #114, .F. ) ;
#200 = CARTESIAN_POINT ( 'NONE',  ( 0.0000000000000000000, 0.0000000000000000000, 0.0000000000000000000 ) ) ;
#201 = PERSON_AND_ORGANIZATION ( #109, #178 ) ;
#202 = DESIGN_CONTEXT ( 'detailed design', #48, 'design' ) ;
#203 = CALENDAR_DATE ( 2021, 9, 12 ) ;
#204 = DIRECTION ( 'NONE',  ( 1.000000000000000000, 0.0000000000000000000, -3.491481338843133355E-15 ) ) ;
#205 = CIRCLE ( 'NONE', #192, 5.999999999999989342 ) ;
#206 = DIRECTION ( 'NONE',  ( 0.0000000000000000000, -1.000000000000000000, 0.0000000000000000000 ) ) ;
#207 = ADVANCED_FACE ( 'NONE', ( #63, #215 ), #91, .T. ) ;
#208 = CARTESIAN_POINT ( 'NONE',  ( 2.583696190743918430E-13, -9.919639073093559622E-15, 74.00000000000000000 ) ) ;
#209 = ADVANCED_FACE ( 'NONE', ( #80, #98 ), #127, .T. ) ;
#210 = ORIENTED_EDGE ( 'NONE', *, *, #93, .F. ) ;
#211 = CIRCLE ( 'NONE', #120, 5.999999999999990230 ) ;
#212 = LOCAL_TIME ( 13, 42, 33.00000000000000000, #18 ) ;
#213 = DIRECTION ( 'NONE',  ( 3.491481338843133355E-15, -2.449293598294706414E-16, 1.000000000000000000 ) ) ;
#214 =( NAMED_UNIT ( * ) SI_UNIT ( $, .STERADIAN. ) SOLID_ANGLE_UNIT ( ) );
#215 = FACE_OUTER_BOUND ( 'NONE', #188, .T. ) ;
#216 = DIRECTION ( 'NONE',  ( 0.0000000000000000000, -1.000000000000000000, 0.0000000000000000000 ) ) ;
#217 = ADVANCED_FACE ( 'NONE', ( #82 ), #177, .F. ) ;
#218 = DIRECTION ( 'NONE',  ( 3.491481338843133355E-15, -0.0000000000000000000, 1.000000000000000000 ) ) ;
#219 = DATE_AND_TIME ( #36, #212 ) ;
#220 = CALENDAR_DATE ( 2021, 9, 12 ) ;
#221 = DATE_AND_TIME ( #40, #142 ) ;
#222 = COORDINATED_UNIVERSAL_TIME_OFFSET ( 1, 0, .AHEAD. ) ;
#223 = AXIS2_PLACEMENT_3D ( 'NONE', #99, #175, #134 ) ;
ENDSEC;
END-ISO-10303-21;
