ISO-10303-21;
HEADER;
FILE_DESCRIPTION (( 'STEP AP203' ),
    '1' );
FILE_NAME ('392840.step',
    '2021-12-09T12:42:33',
    ( '' ),
    ( '' ),
    'SwSTEP 2.0',
    'SolidWorks 2019',
    '' );
FILE_SCHEMA (( 'CONFIG_CONTROL_DESIGN' ));
ENDSEC;

DATA;
#1 = DIRECTION ( 'NONE',  ( 0.0000000000000000000, -1.000000000000000000, 0.0000000000000000000 ) ) ;
#2 = ADVANCED_FACE ( 'NONE', ( #154 ), #80, .F. ) ;
#3 = MECHANICAL_CONTEXT ( 'NONE', #20, 'mechanical' ) ;
#4 = CIRCLE ( 'NONE', #125, 6.000000000000000000 ) ;
#5 = LOCAL_TIME ( 13, 42, 33.00000000000000000, #179 ) ;
#6 = CC_DESIGN_PERSON_AND_ORGANIZATION_ASSIGNMENT ( #142, #127, ( #149 ) ) ;
#7 = APPROVAL_STATUS ( 'not_yet_approved' ) ;
#8 = VERTEX_POINT ( 'NONE', #214 ) ;
#9 = DATE_AND_TIME ( #60, #145 ) ;
#10 = AXIS2_PLACEMENT_3D ( 'NONE', #17, #118, #120 ) ;
#11 = EDGE_LOOP ( 'NONE', ( #183 ) ) ;
#12 = CARTESIAN_POINT ( 'NONE',  ( 2.583696190743918430E-13, -9.919639073093559622E-15, 74.00000000000000000 ) ) ;
#13 = DIRECTION ( 'NONE',  ( -3.491481338843133355E-15, 2.449293598294706414E-16, -1.000000000000000000 ) ) ;
#14 = DIRECTION ( 'NONE',  ( 3.491481338843133355E-15, -0.0000000000000000000, 1.000000000000000000 ) ) ;
#15 = MANIFOLD_SOLID_BREP ( 'Corps-Déplacer/Copier1[1]', #203 ) ;
#16 = MANIFOLD_SOLID_BREP ( 'Corps-Déplacer/Copier1[2]', #72 ) ;
#17 = CARTESIAN_POINT ( 'NONE',  ( 9.077851480992145462E-14, 1.836970198721032350E-15, 25.99999999999999645 ) ) ;
#18 = PLANE ( 'NONE',  #163 ) ;
#19 = LOCAL_TIME ( 13, 42, 33.00000000000000000, #130 ) ;
#20 = APPLICATION_CONTEXT ( 'configuration controlled 3d designs of mechanical parts and assemblies' ) ;
#21 = SECURITY_CLASSIFICATION_LEVEL ( 'unclassified' ) ;
#22 = APPROVAL_STATUS ( 'not_yet_approved' ) ;
#23 = DATE_AND_TIME ( #161, #5 ) ;
#24 = CIRCLE ( 'NONE', #10, 5.999999999999990230 ) ;
#25 = APPLICATION_PROTOCOL_DEFINITION ( 'international standard', 'config_control_design', 1994, #20 ) ;
#26 = EDGE_LOOP ( 'NONE', ( #45 ) ) ;
#27 = APPROVAL ( #22, 'UNSPECIFIED' ) ;
#28 = LOCAL_TIME ( 13, 42, 33.00000000000000000, #181 ) ;
#29 = ORIENTED_EDGE ( 'NONE', *, *, #94, .F. ) ;
#30 = ORIENTED_EDGE ( 'NONE', *, *, #74, .T. ) ;
#31 = DIRECTION ( 'NONE',  ( 0.0000000000000000000, 1.000000000000000000, 0.0000000000000000000 ) ) ;
#32 = VERTEX_POINT ( 'NONE', #210 ) ;
#33 = CC_DESIGN_PERSON_AND_ORGANIZATION_ASSIGNMENT ( #143, #213, ( #83 ) ) ;
#34 = AXIS2_PLACEMENT_3D ( 'NONE', #194, #13, #31 ) ;
#35 = CC_DESIGN_APPROVAL ( #141, ( #83 ) ) ;
#36 = CARTESIAN_POINT ( 'NONE',  ( 6.000000000000001776, 0.0000000000000000000, 0.4999999999999792943 ) ) ;
#37 = UNCERTAINTY_MEASURE_WITH_UNIT (LENGTH_MEASURE( 1.000000000000000082E-05 ), #147, 'distance_accuracy_value', 'NONE');
#38 = EDGE_CURVE ( 'NONE', #137, #137, #172, .T. ) ;
#39 = DIRECTION ( 'NONE',  ( 1.000000000000000000, 0.0000000000000000000, -3.487516988161706061E-15 ) ) ;
#40 = APPROVAL_DATE_TIME ( #23, #27 ) ;
#41 = PERSON_AND_ORGANIZATION ( #92, #187 ) ;
#42 = PERSON_AND_ORGANIZATION ( #92, #187 ) ;
#43 = ADVANCED_FACE ( 'NONE', ( #89 ), #122, .F. ) ;
#44 = ORIENTED_EDGE ( 'NONE', *, *, #74, .F. ) ;
#45 = ORIENTED_EDGE ( 'NONE', *, *, #128, .F. ) ;
#46 = APPROVAL_PERSON_ORGANIZATION ( #180, #27, #107 ) ;
#47 = DIRECTION ( 'NONE',  ( 1.000000000000000000, 0.0000000000000000000, -3.491481338843133355E-15 ) ) ;
#48 = CARTESIAN_POINT ( 'NONE',  ( 5.500000000000000000, 0.0000000000000000000, -1.887788671189158212E-14 ) ) ;
#49 = FACE_OUTER_BOUND ( 'NONE', #98, .T. ) ;
#50 = DIRECTION ( 'NONE',  ( 8.551662891793917213E-31, 1.000000000000000000, 2.449293598294706414E-16 ) ) ;
#51 = DIRECTION ( 'NONE',  ( -3.491481338843133355E-15, -7.065269995080894507E-17, -1.000000000000000000 ) ) ;
#52 = APPROVAL_DATE_TIME ( #178, #108 ) ;
#53 = TOROIDAL_SURFACE ( 'NONE', #114, 5.500000000000000888, 0.4999999999999997780 ) ;
#54 = COORDINATED_UNIVERSAL_TIME_OFFSET ( 1, 0, .AHEAD. ) ;
#55 = CARTESIAN_POINT ( 'NONE',  ( 0.0000000000000000000, 0.0000000000000000000, 0.0000000000000000000 ) ) ;
#56 = AXIS2_PLACEMENT_3D ( 'NONE', #96, #116, #150 ) ;
#57 = APPROVAL_ROLE ( '' ) ;
#58 = AXIS2_PLACEMENT_3D ( 'NONE', #106, #177, #1 ) ;
#59 = EDGE_LOOP ( 'NONE', ( #44 ) ) ;
#60 = CALENDAR_DATE ( 2021, 9, 12 ) ;
#61 = AXIS2_PLACEMENT_3D ( 'NONE', #135, #205, #204 ) ;
#62 = FACE_OUTER_BOUND ( 'NONE', #168, .T. ) ;
#63 = LOCAL_TIME ( 13, 42, 33.00000000000000000, #54 ) ;
#64 = CC_DESIGN_DATE_AND_TIME_ASSIGNMENT ( #71, #76, ( #153 ) ) ;
#65 = DIRECTION ( 'NONE',  ( -8.551662891793917213E-31, -1.000000000000000000, -2.449293598294706414E-16 ) ) ;
#66 = CYLINDRICAL_SURFACE ( 'NONE', #139, 5.999999999999996447 ) ;
#67 = PLANE ( 'NONE',  #206 ) ;
#68 = AXIS2_PLACEMENT_3D ( 'NONE', #55, #166, #124 ) ;
#69 = FACE_OUTER_BOUND ( 'NONE', #218, .T. ) ;
#70 = PRODUCT ( '392840', '392840', '', ( #3 ) ) ;
#71 = DATE_AND_TIME ( #199, #19 ) ;
#72 = CLOSED_SHELL ( 'NONE', ( #88, #43, #158, #2 ) ) ;
#73 = CIRCLE ( 'NONE', #58, 6.000000000000001776 ) ;
#74 = EDGE_CURVE ( 'NONE', #138, #138, #195, .T. ) ;
#75 = DATE_TIME_ROLE ( 'classification_date' ) ;
#76 = DATE_TIME_ROLE ( 'creation_date' ) ;
#77 =( NAMED_UNIT ( * ) PLANE_ANGLE_UNIT ( ) SI_UNIT ( $, .RADIAN. ) );
#78 = ADVANCED_FACE ( 'NONE', ( #208, #140 ), #102, .T. ) ;
#79 = AXIS2_PLACEMENT_3D ( 'NONE', #12, #86, #90 ) ;
#80 = PLANE ( 'NONE',  #56 ) ;
#81 = EDGE_LOOP ( 'NONE', ( #167 ) ) ;
#82 = APPROVAL_DATE_TIME ( #9, #141 ) ;
#83 = SECURITY_CLASSIFICATION ( '', '', #21 ) ;
#84 = ORIENTED_EDGE ( 'NONE', *, *, #38, .F. ) ;
#85 = CARTESIAN_POINT ( 'NONE',  ( 9.077851480992145462E-14, 1.836970198721032350E-15, 25.99999999999999645 ) ) ;
#86 = DIRECTION ( 'NONE',  ( 3.491481338843133355E-15, -2.449293598294706414E-16, 1.000000000000000000 ) ) ;
#87 = DIRECTION ( 'NONE',  ( 1.000000000000000000, 0.0000000000000000000, -3.491481338843133355E-15 ) ) ;
#88 = ADVANCED_FACE ( 'NONE', ( #212, #103 ), #190, .T. ) ;
#89 = FACE_OUTER_BOUND ( 'NONE', #11, .T. ) ;
#90 = DIRECTION ( 'NONE',  ( 0.0000000000000000000, -1.000000000000000000, 0.0000000000000000000 ) ) ;
#91 = PERSON_AND_ORGANIZATION ( #92, #187 ) ;
#92 = PERSON ( 'UNSPECIFIED', 'UNSPECIFIED', 'UNSPECIFIED', ('UNSPECIFIED'), ('UNSPECIFIED'), ('UNSPECIFIED') ) ;
#93 = VERTEX_POINT ( 'NONE', #216 ) ;
#94 = EDGE_CURVE ( 'NONE', #32, #32, #24, .T. ) ;
#95 = CALENDAR_DATE ( 2021, 9, 12 ) ;
#96 = CARTESIAN_POINT ( 'NONE',  ( -7.400477502513968705E-31, 5.999999999999992006, -2.119580998524265517E-16 ) ) ;
#97 = AXIS2_PLACEMENT_3D ( 'NONE', #170, #222, #193 ) ;
#98 = EDGE_LOOP ( 'NONE', ( #30 ) ) ;
#99 = PRODUCT_RELATED_PRODUCT_CATEGORY ( 'detail', '', ( #70 ) ) ;
#100 = ORIENTED_EDGE ( 'NONE', *, *, #115, .F. ) ;
#101 = DIRECTION ( 'NONE',  ( 0.0000000000000000000, -1.000000000000000000, 0.0000000000000000000 ) ) ;
#102 = CONICAL_SURFACE ( 'NONE', #34, 6.000000000000001776, 0.7853981633974392862 ) ;
#103 = FACE_OUTER_BOUND ( 'NONE', #185, .T. ) ;
#104 = ADVANCED_BREP_SHAPE_REPRESENTATION ( '392840', ( #15, #16, #68 ), #111 ) ;
#105 = FACE_OUTER_BOUND ( 'NONE', #186, .T. ) ;
#106 = CARTESIAN_POINT ( 'NONE',  ( 2.541798414677800578E-13, -9.625723841298188009E-15, 72.79999999999998295 ) ) ;
#107 = APPROVAL_ROLE ( '' ) ;
#108 = APPROVAL ( #7, 'UNSPECIFIED' ) ;
#109 = PERSON_AND_ORGANIZATION_ROLE ( 'design_owner' ) ;
#110 = PERSON_AND_ORGANIZATION_ROLE ( 'design_supplier' ) ;
#111 =( GEOMETRIC_REPRESENTATION_CONTEXT ( 3 ) GLOBAL_UNCERTAINTY_ASSIGNED_CONTEXT ( ( #37 ) ) GLOBAL_UNIT_ASSIGNED_CONTEXT ( ( #147, #77, #112 ) ) REPRESENTATION_CONTEXT ( 'NONE', 'WORKASPACE' ) );
#112 =( NAMED_UNIT ( * ) SI_UNIT ( $, .STERADIAN. ) SOLID_ANGLE_UNIT ( ) );
#113 = SHAPE_DEFINITION_REPRESENTATION ( #144, #104 ) ;
#114 = AXIS2_PLACEMENT_3D ( 'NONE', #211, #174, #87 ) ;
#115 = EDGE_CURVE ( 'NONE', #191, #191, #4, .T. ) ;
#116 = DIRECTION ( 'NONE',  ( 3.491481338843133355E-15, 7.065269995080894507E-17, 1.000000000000000000 ) ) ;
#117 = CC_DESIGN_APPROVAL ( #108, ( #153 ) ) ;
#118 = DIRECTION ( 'NONE',  ( 3.491481338843133355E-15, 7.065269995080894507E-17, 1.000000000000000000 ) ) ;
#119 = DIRECTION ( 'NONE',  ( -3.491481338843133355E-15, 2.449293598294706414E-16, -1.000000000000000000 ) ) ;
#120 = DIRECTION ( 'NONE',  ( 0.0000000000000000000, -1.000000000000000000, 0.0000000000000000000 ) ) ;
#121 = CC_DESIGN_APPROVAL ( #27, ( #149 ) ) ;
#122 = PLANE ( 'NONE',  #133 ) ;
#123 = DIRECTION ( 'NONE',  ( -2.466825834171326113E-31, 1.000000000000000000, -7.065269995080894507E-17 ) ) ;
#124 = DIRECTION ( 'NONE',  ( 1.000000000000000000, 0.0000000000000000000, 0.0000000000000000000 ) ) ;
#125 = AXIS2_PLACEMENT_3D ( 'NONE', #155, #160, #39 ) ;
#126 = APPROVAL_PERSON_ORGANIZATION ( #146, #141, #57 ) ;
#127 = PERSON_AND_ORGANIZATION_ROLE ( 'creator' ) ;
#128 = EDGE_CURVE ( 'NONE', #93, #93, #156, .T. ) ;
#129 = APPROVAL_PERSON_ORGANIZATION ( #162, #108, #148 ) ;
#130 = COORDINATED_UNIVERSAL_TIME_OFFSET ( 1, 0, .AHEAD. ) ;
#131 = COORDINATED_UNIVERSAL_TIME_OFFSET ( 1, 0, .AHEAD. ) ;
#132 = ORIENTED_EDGE ( 'NONE', *, *, #38, .T. ) ;
#133 = AXIS2_PLACEMENT_3D ( 'NONE', #85, #51, #123 ) ;
#134 = EDGE_LOOP ( 'NONE', ( #151 ) ) ;
#135 = CARTESIAN_POINT ( 'NONE',  ( 9.077851480992145462E-14, 1.836970198721031955E-15, 25.99999999999999645 ) ) ;
#136 = CARTESIAN_POINT ( 'NONE',  ( 2.583696190743918430E-13, -9.919639073093559622E-15, 74.00000000000000000 ) ) ;
#137 = VERTEX_POINT ( 'NONE', #209 ) ;
#138 = VERTEX_POINT ( 'NONE', #48 ) ;
#139 = AXIS2_PLACEMENT_3D ( 'NONE', #136, #223, #101 ) ;
#140 = FACE_OUTER_BOUND ( 'NONE', #134, .T. ) ;
#141 = APPROVAL ( #184, 'UNSPECIFIED' ) ;
#142 = PERSON_AND_ORGANIZATION ( #92, #187 ) ;
#143 = PERSON_AND_ORGANIZATION ( #92, #187 ) ;
#144 = PRODUCT_DEFINITION_SHAPE ( 'NONE', 'NONE',  #153 ) ;
#145 = LOCAL_TIME ( 13, 42, 33.00000000000000000, #131 ) ;
#146 = PERSON_AND_ORGANIZATION ( #92, #187 ) ;
#147 =( LENGTH_UNIT ( ) NAMED_UNIT ( * ) SI_UNIT ( .MILLI., .METRE. ) );
#148 = APPROVAL_ROLE ( '' ) ;
#149 = PRODUCT_DEFINITION_FORMATION_WITH_SPECIFIED_SOURCE ( 'ANY', '', #70, .NOT_KNOWN. ) ;
#150 = DIRECTION ( 'NONE',  ( 2.466825834171326113E-31, -1.000000000000000000, 7.065269995080894507E-17 ) ) ;
#151 = ORIENTED_EDGE ( 'NONE', *, *, #189, .T. ) ;
#152 = ORIENTED_EDGE ( 'NONE', *, *, #189, .F. ) ;
#153 = PRODUCT_DEFINITION ( 'UNKNOWN', '', #149, #175 ) ;
#154 = FACE_OUTER_BOUND ( 'NONE', #59, .T. ) ;
#155 = CARTESIAN_POINT ( 'NONE',  ( 1.745740669421567467E-15, 0.0000000000000000000, 0.5000000000000002220 ) ) ;
#156 = CIRCLE ( 'NONE', #79, 4.800000000000003375 ) ;
#157 = CARTESIAN_POINT ( 'NONE',  ( 9.077851480992145462E-14, 1.836970198721032350E-15, 25.99999999999999645 ) ) ;
#158 = ADVANCED_FACE ( 'NONE', ( #49, #105 ), #53, .T. ) ;
#159 = CARTESIAN_POINT ( 'NONE',  ( 2.583696190743918430E-13, -9.919639073093559622E-15, 74.00000000000000000 ) ) ;
#160 = DIRECTION ( 'NONE',  ( 3.491481338843133355E-15, -0.0000000000000000000, 1.000000000000000000 ) ) ;
#161 = CALENDAR_DATE ( 2021, 9, 12 ) ;
#162 = PERSON_AND_ORGANIZATION ( #92, #187 ) ;
#163 = AXIS2_PLACEMENT_3D ( 'NONE', #159, #119, #50 ) ;
#164 = DATE_AND_TIME ( #95, #63 ) ;
#165 = CC_DESIGN_SECURITY_CLASSIFICATION ( #83, ( #149 ) ) ;
#166 = DIRECTION ( 'NONE',  ( 0.0000000000000000000, 0.0000000000000000000, 1.000000000000000000 ) ) ;
#167 = ORIENTED_EDGE ( 'NONE', *, *, #128, .T. ) ;
#168 = EDGE_LOOP ( 'NONE', ( #132 ) ) ;
#169 = EDGE_LOOP ( 'NONE', ( #84 ) ) ;
#170 = CARTESIAN_POINT ( 'NONE',  ( 9.077851480992145462E-14, 1.836970198721032350E-15, 25.99999999999999645 ) ) ;
#171 = FACE_OUTER_BOUND ( 'NONE', #169, .T. ) ;
#172 = CIRCLE ( 'NONE', #61, 5.999999999999989342 ) ;
#173 = CARTESIAN_POINT ( 'NONE',  ( 1.135641495829896858E-30, 0.0000000000000000000, 3.252606517456513302E-16 ) ) ;
#174 = DIRECTION ( 'NONE',  ( 3.491481338843133355E-15, -0.0000000000000000000, 1.000000000000000000 ) ) ;
#175 = DESIGN_CONTEXT ( 'detailed design', #219, 'design' ) ;
#176 = CC_DESIGN_DATE_AND_TIME_ASSIGNMENT ( #164, #75, ( #83 ) ) ;
#177 = DIRECTION ( 'NONE',  ( 3.491481338843133355E-15, -2.449293598294706414E-16, 1.000000000000000000 ) ) ;
#178 = DATE_AND_TIME ( #198, #28 ) ;
#179 = COORDINATED_UNIVERSAL_TIME_OFFSET ( 1, 0, .AHEAD. ) ;
#180 = PERSON_AND_ORGANIZATION ( #92, #187 ) ;
#181 = COORDINATED_UNIVERSAL_TIME_OFFSET ( 1, 0, .AHEAD. ) ;
#182 = ADVANCED_FACE ( 'NONE', ( #220 ), #18, .F. ) ;
#183 = ORIENTED_EDGE ( 'NONE', *, *, #94, .T. ) ;
#184 = APPROVAL_STATUS ( 'not_yet_approved' ) ;
#185 = EDGE_LOOP ( 'NONE', ( #201 ) ) ;
#186 = EDGE_LOOP ( 'NONE', ( #100 ) ) ;
#187 = ORGANIZATION ( 'UNSPECIFIED', 'UNSPECIFIED', '' ) ;
#188 = EDGE_LOOP ( 'NONE', ( #29 ) ) ;
#189 = EDGE_CURVE ( 'NONE', #8, #8, #73, .T. ) ;
#190 = CYLINDRICAL_SURFACE ( 'NONE', #97, 5.999999999999991118 ) ;
#191 = VERTEX_POINT ( 'NONE', #36 ) ;
#192 = CC_DESIGN_PERSON_AND_ORGANIZATION_ASSIGNMENT ( #42, #110, ( #149 ) ) ;
#193 = DIRECTION ( 'NONE',  ( 0.0000000000000000000, -1.000000000000000000, 0.0000000000000000000 ) ) ;
#194 = CARTESIAN_POINT ( 'NONE',  ( 2.541798414677800578E-13, -9.625723841298188009E-15, 72.79999999999998295 ) ) ;
#195 = CIRCLE ( 'NONE', #202, 5.500000000000000000 ) ;
#196 = PERSON_AND_ORGANIZATION_ROLE ( 'creator' ) ;
#197 = ADVANCED_FACE ( 'NONE', ( #69, #62 ), #66, .T. ) ;
#198 = CALENDAR_DATE ( 2021, 9, 12 ) ;
#199 = CALENDAR_DATE ( 2021, 9, 12 ) ;
#200 = APPLICATION_PROTOCOL_DEFINITION ( 'international standard', 'config_control_design', 1994, #219 ) ;
#201 = ORIENTED_EDGE ( 'NONE', *, *, #115, .T. ) ;
#202 = AXIS2_PLACEMENT_3D ( 'NONE', #173, #14, #47 ) ;
#203 = CLOSED_SHELL ( 'NONE', ( #217, #197, #78, #182 ) ) ;
#204 = DIRECTION ( 'NONE',  ( 0.0000000000000000000, -1.000000000000000000, 0.0000000000000000000 ) ) ;
#205 = DIRECTION ( 'NONE',  ( 3.491481338843133355E-15, -2.449293598294706414E-16, 1.000000000000000000 ) ) ;
#206 = AXIS2_PLACEMENT_3D ( 'NONE', #157, #221, #65 ) ;
#207 = CC_DESIGN_PERSON_AND_ORGANIZATION_ASSIGNMENT ( #41, #196, ( #153 ) ) ;
#208 = FACE_BOUND ( 'NONE', #26, .T. ) ;
#209 = CARTESIAN_POINT ( 'NONE',  ( 9.077851480992145462E-14, -5.999999999999987566, 25.99999999999999645 ) ) ;
#210 = CARTESIAN_POINT ( 'NONE',  ( 9.077851480992145462E-14, -5.999999999999988454, 25.99999999999999645 ) ) ;
#211 = CARTESIAN_POINT ( 'NONE',  ( 1.745740669421567467E-15, 0.0000000000000000000, 0.5000000000000002220 ) ) ;
#212 = FACE_OUTER_BOUND ( 'NONE', #188, .T. ) ;
#213 = PERSON_AND_ORGANIZATION_ROLE ( 'classification_officer' ) ;
#214 = CARTESIAN_POINT ( 'NONE',  ( 2.541798414677800578E-13, -6.000000000000011546, 72.79999999999998295 ) ) ;
#215 = CC_DESIGN_PERSON_AND_ORGANIZATION_ASSIGNMENT ( #91, #109, ( #70 ) ) ;
#216 = CARTESIAN_POINT ( 'NONE',  ( 2.583696190743918430E-13, -4.800000000000012257, 74.00000000000000000 ) ) ;
#217 = ADVANCED_FACE ( 'NONE', ( #171 ), #67, .F. ) ;
#218 = EDGE_LOOP ( 'NONE', ( #152 ) ) ;
#219 = APPLICATION_CONTEXT ( 'configuration controlled 3d designs of mechanical parts and assemblies' ) ;
#220 = FACE_OUTER_BOUND ( 'NONE', #81, .T. ) ;
#221 = DIRECTION ( 'NONE',  ( 3.491481338843133355E-15, -2.449293598294706414E-16, 1.000000000000000000 ) ) ;
#222 = DIRECTION ( 'NONE',  ( 3.491481338843133355E-15, 7.065269995080894507E-17, 1.000000000000000000 ) ) ;
#223 = DIRECTION ( 'NONE',  ( 3.491481338843133355E-15, -2.449293598294706414E-16, 1.000000000000000000 ) ) ;
ENDSEC;
END-ISO-10303-21;
