ISO-10303-21;
HEADER;
FILE_DESCRIPTION (( 'STEP AP203' ),
    '1' );
FILE_NAME ('392839.step',
    '2021-12-09T12:42:32',
    ( '' ),
    ( '' ),
    'SwSTEP 2.0',
    'SolidWorks 2019',
    '' );
FILE_SCHEMA (( 'CONFIG_CONTROL_DESIGN' ));
ENDSEC;

DATA;
#1 = CARTESIAN_POINT ( 'NONE',  ( -9.717798740674888726E-31, 4.999999999999992006, -2.783288179880343156E-16 ) ) ;
#2 = EDGE_LOOP ( 'NONE', ( #116 ) ) ;
#3 = AXIS2_PLACEMENT_3D ( 'NONE', #221, #15, #66 ) ;
#4 = CC_DESIGN_PERSON_AND_ORGANIZATION_ASSIGNMENT ( #196, #103, ( #192 ) ) ;
#5 = PERSON_AND_ORGANIZATION_ROLE ( 'classification_officer' ) ;
#6 = APPLICATION_PROTOCOL_DEFINITION ( 'international standard', 'config_control_design', 1994, #107 ) ;
#7 = ADVANCED_FACE ( 'NONE', ( #223, #74 ), #54, .T. ) ;
#8 = TOROIDAL_SURFACE ( 'NONE', #146, 3.000000000000000000, 2.000000000000000888 ) ;
#9 = CALENDAR_DATE ( 2021, 9, 12 ) ;
#10 = ORIENTED_EDGE ( 'NONE', *, *, #214, .F. ) ;
#11 = CALENDAR_DATE ( 2021, 9, 12 ) ;
#12 = CARTESIAN_POINT ( 'NONE',  ( 6.982962677686268288E-15, 0.0000000000000000000, 2.000000000000000444 ) ) ;
#13 = DIRECTION ( 'NONE',  ( 8.551662891793917213E-31, 1.000000000000000000, 2.449293598294706414E-16 ) ) ;
#14 = FACE_OUTER_BOUND ( 'NONE', #216, .T. ) ;
#15 = DIRECTION ( 'NONE',  ( 3.491481338843133355E-15, -0.0000000000000000000, 1.000000000000000000 ) ) ;
#16 = CLOSED_SHELL ( 'NONE', ( #206, #177, #7, #190 ) ) ;
#17 = CARTESIAN_POINT ( 'NONE',  ( 7.681258945454893382E-14, -4.999999999999986677, 22.00000000000000000 ) ) ;
#18 = LOCAL_TIME ( 13, 42, 32.00000000000000000, #106 ) ;
#19 = EDGE_LOOP ( 'NONE', ( #21 ) ) ;
#20 = COORDINATED_UNIVERSAL_TIME_OFFSET ( 1, 0, .AHEAD. ) ;
#21 = ORIENTED_EDGE ( 'NONE', *, *, #118, .T. ) ;
#22 = COORDINATED_UNIVERSAL_TIME_OFFSET ( 1, 0, .AHEAD. ) ;
#23 = APPROVAL_ROLE ( '' ) ;
#24 = AXIS2_PLACEMENT_3D ( 'NONE', #112, #144, #200 ) ;
#25 = PERSON_AND_ORGANIZATION ( #72, #36 ) ;
#26 = CARTESIAN_POINT ( 'NONE',  ( 7.681258945454893382E-14, 2.449293598294707302E-15, 22.00000000000000000 ) ) ;
#27 = PLANE ( 'NONE',  #24 ) ;
#28 = DIRECTION ( 'NONE',  ( 3.491481338843133355E-15, -2.449293598294706414E-16, 1.000000000000000000 ) ) ;
#29 = DIRECTION ( 'NONE',  ( 0.0000000000000000000, -1.000000000000000000, 0.0000000000000000000 ) ) ;
#30 = ADVANCED_FACE ( 'NONE', ( #191 ), #35, .F. ) ;
#31 = CARTESIAN_POINT ( 'NONE',  ( 5.000000000000007994, 0.0000000000000000000, 1.999999999999983125 ) ) ;
#32 = LOCAL_TIME ( 13, 42, 32.00000000000000000, #180 ) ;
#33 = APPROVAL ( #181, 'UNSPECIFIED' ) ;
#34 = EDGE_LOOP ( 'NONE', ( #104 ) ) ;
#35 = PLANE ( 'NONE',  #86 ) ;
#36 = ORGANIZATION ( 'UNSPECIFIED', 'UNSPECIFIED', '' ) ;
#37 = UNCERTAINTY_MEASURE_WITH_UNIT (LENGTH_MEASURE( 1.000000000000000082E-05 ), #145, 'distance_accuracy_value', 'NONE');
#38 = EDGE_CURVE ( 'NONE', #142, #142, #189, .T. ) ;
#39 = APPROVAL_DATE_TIME ( #44, #158 ) ;
#40 =( NAMED_UNIT ( * ) SI_UNIT ( $, .STERADIAN. ) SOLID_ANGLE_UNIT ( ) );
#41 = EDGE_LOOP ( 'NONE', ( #96 ) ) ;
#42 = APPROVAL_PERSON_ORGANIZATION ( #119, #158, #151 ) ;
#43 = DIRECTION ( 'NONE',  ( 0.0000000000000000000, 0.0000000000000000000, 1.000000000000000000 ) ) ;
#44 = DATE_AND_TIME ( #11, #209 ) ;
#45 = CIRCLE ( 'NONE', #194, 4.999999999999989342 ) ;
#46 = DIRECTION ( 'NONE',  ( 0.0000000000000000000, -1.000000000000000000, 0.0000000000000000000 ) ) ;
#47 = EDGE_CURVE ( 'NONE', #63, #63, #203, .T. ) ;
#48 = DIRECTION ( 'NONE',  ( 3.491481338843133355E-15, -2.449293598294706414E-16, 1.000000000000000000 ) ) ;
#49 = CYLINDRICAL_SURFACE ( 'NONE', #176, 4.999999999999995559 ) ;
#50 = DIRECTION ( 'NONE',  ( -3.491481338843133355E-15, 2.449293598294706414E-16, -1.000000000000000000 ) ) ;
#51 = CIRCLE ( 'NONE', #115, 4.000000000000000888 ) ;
#52 = FACE_OUTER_BOUND ( 'NONE', #41, .T. ) ;
#53 = VERTEX_POINT ( 'NONE', #174 ) ;
#54 = CONICAL_SURFACE ( 'NONE', #198, 5.000000000000000888, 0.7853981633974479459 ) ;
#55 = DIRECTION ( 'NONE',  ( -3.491481338843133355E-15, 2.449293598294706414E-16, -1.000000000000000000 ) ) ;
#56 = EDGE_LOOP ( 'NONE', ( #160 ) ) ;
#57 = PERSON_AND_ORGANIZATION ( #72, #36 ) ;
#58 = PERSON_AND_ORGANIZATION_ROLE ( 'creator' ) ;
#59 = PERSON_AND_ORGANIZATION ( #72, #36 ) ;
#60 = DATE_TIME_ROLE ( 'creation_date' ) ;
#61 = DIRECTION ( 'NONE',  ( 1.000000000000000000, 0.0000000000000000000, -3.491481338843133355E-15 ) ) ;
#62 = LOCAL_TIME ( 13, 42, 32.00000000000000000, #134 ) ;
#63 = VERTEX_POINT ( 'NONE', #140 ) ;
#64 = PLANE ( 'NONE',  #157 ) ;
#65 = APPROVAL_DATE_TIME ( #183, #33 ) ;
#66 = DIRECTION ( 'NONE',  ( 1.000000000000000000, 0.0000000000000000000, -3.469446951953613400E-15 ) ) ;
#67 = DIRECTION ( 'NONE',  ( 0.0000000000000000000, -1.000000000000000000, 0.0000000000000000000 ) ) ;
#68 = CIRCLE ( 'NONE', #207, 4.999999999999989342 ) ;
#69 = ADVANCED_FACE ( 'NONE', ( #197, #91 ), #90, .T. ) ;
#70 = APPROVAL_PERSON_ORGANIZATION ( #213, #33, #23 ) ;
#71 = EDGE_LOOP ( 'NONE', ( #131 ) ) ;
#72 = PERSON ( 'UNSPECIFIED', 'UNSPECIFIED', 'UNSPECIFIED', ('UNSPECIFIED'), ('UNSPECIFIED'), ('UNSPECIFIED') ) ;
#73 = DIRECTION ( 'NONE',  ( 3.491481338843133355E-15, 1.113315271952138988E-16, 1.000000000000000000 ) ) ;
#74 = FACE_OUTER_BOUND ( 'NONE', #83, .T. ) ;
#75 =( GEOMETRIC_REPRESENTATION_CONTEXT ( 3 ) GLOBAL_UNCERTAINTY_ASSIGNED_CONTEXT ( ( #37 ) ) GLOBAL_UNIT_ASSIGNED_CONTEXT ( ( #145, #81, #40 ) ) REPRESENTATION_CONTEXT ( 'NONE', 'WORKASPACE' ) );
#76 = DIRECTION ( 'NONE',  ( 1.000000000000000000, 0.0000000000000000000, 0.0000000000000000000 ) ) ;
#77 = CC_DESIGN_DATE_AND_TIME_ASSIGNMENT ( #165, #120, ( #93 ) ) ;
#78 = SECURITY_CLASSIFICATION_LEVEL ( 'unclassified' ) ;
#79 = DATE_AND_TIME ( #100, #32 ) ;
#80 = CLOSED_SHELL ( 'NONE', ( #69, #82, #155, #30 ) ) ;
#81 =( NAMED_UNIT ( * ) PLANE_ANGLE_UNIT ( ) SI_UNIT ( $, .RADIAN. ) );
#82 = ADVANCED_FACE ( 'NONE', ( #171 ), #27, .F. ) ;
#83 = EDGE_LOOP ( 'NONE', ( #163 ) ) ;
#84 = APPROVAL_STATUS ( 'not_yet_approved' ) ;
#85 = CARTESIAN_POINT ( 'NONE',  ( 0.0000000000000000000, 0.0000000000000000000, 0.0000000000000000000 ) ) ;
#86 = AXIS2_PLACEMENT_3D ( 'NONE', #1, #73, #217 ) ;
#87 = CARTESIAN_POINT ( 'NONE',  ( 7.681258945454893382E-14, 2.449293598294705330E-15, 22.00000000000000000 ) ) ;
#88 = DIRECTION ( 'NONE',  ( 1.000000000000000000, 0.0000000000000000000, -3.491481338843133355E-15 ) ) ;
#89 = PRODUCT_DEFINITION_SHAPE ( 'NONE', 'NONE',  #184 ) ;
#90 = CYLINDRICAL_SURFACE ( 'NONE', #212, 4.999999999999990230 ) ;
#91 = FACE_OUTER_BOUND ( 'NONE', #2, .T. ) ;
#92 = MANIFOLD_SOLID_BREP ( 'Corps-Déplacer/Copier1[1]', #16 ) ;
#93 = SECURITY_CLASSIFICATION ( '', '', #78 ) ;
#94 = CC_DESIGN_PERSON_AND_ORGANIZATION_ASSIGNMENT ( #133, #149, ( #202 ) ) ;
#95 = ORIENTED_EDGE ( 'NONE', *, *, #113, .F. ) ;
#96 = ORIENTED_EDGE ( 'NONE', *, *, #47, .T. ) ;
#97 = DESIGN_CONTEXT ( 'detailed design', #121, 'design' ) ;
#98 = EDGE_LOOP ( 'NONE', ( #10 ) ) ;
#99 = CC_DESIGN_APPROVAL ( #33, ( #93 ) ) ;
#100 = CALENDAR_DATE ( 2021, 9, 12 ) ;
#101 = CC_DESIGN_APPROVAL ( #148, ( #192 ) ) ;
#102 = CC_DESIGN_DATE_AND_TIME_ASSIGNMENT ( #79, #60, ( #184 ) ) ;
#103 = PERSON_AND_ORGANIZATION_ROLE ( 'creator' ) ;
#104 = ORIENTED_EDGE ( 'NONE', *, *, #38, .F. ) ;
#105 = CALENDAR_DATE ( 2021, 9, 12 ) ;
#106 = COORDINATED_UNIVERSAL_TIME_OFFSET ( 1, 0, .AHEAD. ) ;
#107 = APPLICATION_CONTEXT ( 'configuration controlled 3d designs of mechanical parts and assemblies' ) ;
#108 = APPROVAL_DATE_TIME ( #179, #148 ) ;
#109 = CARTESIAN_POINT ( 'NONE',  ( 7.681258945454893382E-14, 2.449293598294705330E-15, 22.00000000000000000 ) ) ;
#110 = FACE_OUTER_BOUND ( 'NONE', #34, .T. ) ;
#111 = DIRECTION ( 'NONE',  ( -8.551662891793917213E-31, -1.000000000000000000, -2.449293598294706414E-16 ) ) ;
#112 = CARTESIAN_POINT ( 'NONE',  ( 7.681258945454893382E-14, 2.449293598294705330E-15, 22.00000000000000000 ) ) ;
#113 = EDGE_CURVE ( 'NONE', #53, #53, #68, .T. ) ;
#114 = VERTEX_POINT ( 'NONE', #31 ) ;
#115 = AXIS2_PLACEMENT_3D ( 'NONE', #128, #185, #154 ) ;
#116 = ORIENTED_EDGE ( 'NONE', *, *, #214, .T. ) ;
#117 = APPROVAL_ROLE ( '' ) ;
#118 = EDGE_CURVE ( 'NONE', #129, #129, #45, .T. ) ;
#119 = PERSON_AND_ORGANIZATION ( #72, #36 ) ;
#120 = DATE_TIME_ROLE ( 'classification_date' ) ;
#121 = APPLICATION_CONTEXT ( 'configuration controlled 3d designs of mechanical parts and assemblies' ) ;
#122 = DIRECTION ( 'NONE',  ( 0.0000000000000000000, -1.000000000000000000, 0.0000000000000000000 ) ) ;
#123 = DIRECTION ( 'NONE',  ( 3.491481338843133355E-15, 1.113315271952138988E-16, 1.000000000000000000 ) ) ;
#124 = CC_DESIGN_PERSON_AND_ORGANIZATION_ASSIGNMENT ( #59, #5, ( #93 ) ) ;
#125 = FACE_OUTER_BOUND ( 'NONE', #152, .T. ) ;
#126 = AXIS2_PLACEMENT_3D ( 'NONE', #85, #156, #88 ) ;
#127 = CARTESIAN_POINT ( 'NONE',  ( 2.339292497024899474E-13, -8.572527594031472993E-15, 67.00000000000000000 ) ) ;
#128 = CARTESIAN_POINT ( 'NONE',  ( 2.339292497024899474E-13, -8.572527594031472993E-15, 67.00000000000000000 ) ) ;
#129 = VERTEX_POINT ( 'NONE', #17 ) ;
#130 = AXIS2_PLACEMENT_3D ( 'NONE', #109, #28, #111 ) ;
#131 = ORIENTED_EDGE ( 'NONE', *, *, #136, .F. ) ;
#132 = DIRECTION ( 'NONE',  ( 0.0000000000000000000, 1.000000000000000000, 0.0000000000000000000 ) ) ;
#133 = PERSON_AND_ORGANIZATION ( #72, #36 ) ;
#134 = COORDINATED_UNIVERSAL_TIME_OFFSET ( 1, 0, .AHEAD. ) ;
#135 = CC_DESIGN_SECURITY_CLASSIFICATION ( #93, ( #192 ) ) ;
#136 = EDGE_CURVE ( 'NONE', #205, #205, #51, .T. ) ;
#137 = CALENDAR_DATE ( 2021, 9, 12 ) ;
#138 = DIRECTION ( 'NONE',  ( 3.491481338843133355E-15, -2.449293598294706414E-16, 1.000000000000000000 ) ) ;
#139 = CC_DESIGN_APPROVAL ( #158, ( #184 ) ) ;
#140 = CARTESIAN_POINT ( 'NONE',  ( 3.000000000000000444, 0.0000000000000000000, -1.047444401652940164E-14 ) ) ;
#141 = CARTESIAN_POINT ( 'NONE',  ( 2.339292497024899474E-13, -8.572527594031472993E-15, 67.00000000000000000 ) ) ;
#142 = VERTEX_POINT ( 'NONE', #168 ) ;
#143 = AXIS2_PLACEMENT_3D ( 'NONE', #199, #222, #67 ) ;
#144 = DIRECTION ( 'NONE',  ( -3.491481338843133355E-15, -1.113315271952138988E-16, -1.000000000000000000 ) ) ;
#145 =( LENGTH_UNIT ( ) NAMED_UNIT ( * ) SI_UNIT ( .MILLI., .METRE. ) );
#146 = AXIS2_PLACEMENT_3D ( 'NONE', #12, #219, #61 ) ;
#147 = ORIENTED_EDGE ( 'NONE', *, *, #118, .F. ) ;
#148 = APPROVAL ( #84, 'UNSPECIFIED' ) ;
#149 = PERSON_AND_ORGANIZATION_ROLE ( 'design_owner' ) ;
#150 = CARTESIAN_POINT ( 'NONE',  ( 0.0000000000000000000, 0.0000000000000000000, 0.0000000000000000000 ) ) ;
#151 = APPROVAL_ROLE ( '' ) ;
#152 = EDGE_LOOP ( 'NONE', ( #175 ) ) ;
#153 = FACE_OUTER_BOUND ( 'NONE', #178, .T. ) ;
#154 = DIRECTION ( 'NONE',  ( 0.0000000000000000000, -1.000000000000000000, 0.0000000000000000000 ) ) ;
#155 = ADVANCED_FACE ( 'NONE', ( #52, #173 ), #8, .T. ) ;
#156 = DIRECTION ( 'NONE',  ( 3.491481338843133355E-15, -0.0000000000000000000, 1.000000000000000000 ) ) ;
#157 = AXIS2_PLACEMENT_3D ( 'NONE', #127, #50, #13 ) ;
#158 = APPROVAL ( #211, 'UNSPECIFIED' ) ;
#159 = EDGE_LOOP ( 'NONE', ( #147 ) ) ;
#160 = ORIENTED_EDGE ( 'NONE', *, *, #47, .F. ) ;
#161 = ORIENTED_EDGE ( 'NONE', *, *, #113, .T. ) ;
#162 = AXIS2_PLACEMENT_3D ( 'NONE', #150, #43, #76 ) ;
#163 = ORIENTED_EDGE ( 'NONE', *, *, #38, .T. ) ;
#164 = PERSON_AND_ORGANIZATION_ROLE ( 'design_supplier' ) ;
#165 = DATE_AND_TIME ( #105, #218 ) ;
#166 = ADVANCED_BREP_SHAPE_REPRESENTATION ( '392839', ( #92, #167, #162 ), #75 ) ;
#167 = MANIFOLD_SOLID_BREP ( 'Corps-Déplacer/Copier1[2]', #80 ) ;
#168 = CARTESIAN_POINT ( 'NONE',  ( 2.304377683636468267E-13, -5.000000000000009770, 66.00000000000000000 ) ) ;
#169 = SHAPE_DEFINITION_REPRESENTATION ( #89, #166 ) ;
#170 = APPROVAL_PERSON_ORGANIZATION ( #57, #148, #117 ) ;
#171 = FACE_OUTER_BOUND ( 'NONE', #19, .T. ) ;
#172 = DIRECTION ( 'NONE',  ( 0.0000000000000000000, -1.000000000000000000, 0.0000000000000000000 ) ) ;
#173 = FACE_OUTER_BOUND ( 'NONE', #98, .T. ) ;
#174 = CARTESIAN_POINT ( 'NONE',  ( 7.681258945454893382E-14, -4.999999999999986677, 22.00000000000000000 ) ) ;
#175 = ORIENTED_EDGE ( 'NONE', *, *, #136, .T. ) ;
#176 = AXIS2_PLACEMENT_3D ( 'NONE', #141, #138, #122 ) ;
#177 = ADVANCED_FACE ( 'NONE', ( #110, #153 ), #49, .T. ) ;
#178 = EDGE_LOOP ( 'NONE', ( #161 ) ) ;
#179 = DATE_AND_TIME ( #137, #62 ) ;
#180 = COORDINATED_UNIVERSAL_TIME_OFFSET ( 1, 0, .AHEAD. ) ;
#181 = APPROVAL_STATUS ( 'not_yet_approved' ) ;
#182 = CIRCLE ( 'NONE', #3, 5.000000000000000888 ) ;
#183 = DATE_AND_TIME ( #9, #18 ) ;
#184 = PRODUCT_DEFINITION ( 'UNKNOWN', '', #192, #97 ) ;
#185 = DIRECTION ( 'NONE',  ( 3.491481338843133355E-15, -2.449293598294706414E-16, 1.000000000000000000 ) ) ;
#186 = PLANE ( 'NONE',  #130 ) ;
#187 = CARTESIAN_POINT ( 'NONE',  ( 2.339292497024899474E-13, -4.000000000000009770, 67.00000000000000000 ) ) ;
#188 = CC_DESIGN_PERSON_AND_ORGANIZATION_ASSIGNMENT ( #195, #164, ( #192 ) ) ;
#189 = CIRCLE ( 'NONE', #143, 5.000000000000000888 ) ;
#190 = ADVANCED_FACE ( 'NONE', ( #125 ), #64, .F. ) ;
#191 = FACE_OUTER_BOUND ( 'NONE', #56, .T. ) ;
#192 = PRODUCT_DEFINITION_FORMATION_WITH_SPECIFIED_SOURCE ( 'ANY', '', #202, .NOT_KNOWN. ) ;
#193 = CC_DESIGN_PERSON_AND_ORGANIZATION_ASSIGNMENT ( #25, #58, ( #184 ) ) ;
#194 = AXIS2_PLACEMENT_3D ( 'NONE', #201, #204, #46 ) ;
#195 = PERSON_AND_ORGANIZATION ( #72, #36 ) ;
#196 = PERSON_AND_ORGANIZATION ( #72, #36 ) ;
#197 = FACE_OUTER_BOUND ( 'NONE', #159, .T. ) ;
#198 = AXIS2_PLACEMENT_3D ( 'NONE', #208, #55, #132 ) ;
#199 = CARTESIAN_POINT ( 'NONE',  ( 2.304377683636468267E-13, -8.327598234202001119E-15, 66.00000000000000000 ) ) ;
#200 = DIRECTION ( 'NONE',  ( -3.887119496269961534E-31, 1.000000000000000000, -1.113315271952138988E-16 ) ) ;
#201 = CARTESIAN_POINT ( 'NONE',  ( 7.681258945454893382E-14, 2.449293598294705330E-15, 22.00000000000000000 ) ) ;
#202 = PRODUCT ( '392839', '392839', '', ( #215 ) ) ;
#203 = CIRCLE ( 'NONE', #126, 3.000000000000000444 ) ;
#204 = DIRECTION ( 'NONE',  ( 3.491481338843133355E-15, 1.113315271952138988E-16, 1.000000000000000000 ) ) ;
#205 = VERTEX_POINT ( 'NONE', #187 ) ;
#206 = ADVANCED_FACE ( 'NONE', ( #14 ), #186, .F. ) ;
#207 = AXIS2_PLACEMENT_3D ( 'NONE', #26, #48, #172 ) ;
#208 = CARTESIAN_POINT ( 'NONE',  ( 2.304377683636468267E-13, -8.327598234202001119E-15, 66.00000000000000000 ) ) ;
#209 = LOCAL_TIME ( 13, 42, 32.00000000000000000, #20 ) ;
#210 = APPLICATION_PROTOCOL_DEFINITION ( 'international standard', 'config_control_design', 1994, #121 ) ;
#211 = APPROVAL_STATUS ( 'not_yet_approved' ) ;
#212 = AXIS2_PLACEMENT_3D ( 'NONE', #87, #123, #29 ) ;
#213 = PERSON_AND_ORGANIZATION ( #72, #36 ) ;
#214 = EDGE_CURVE ( 'NONE', #114, #114, #182, .T. ) ;
#215 = MECHANICAL_CONTEXT ( 'NONE', #107, 'mechanical' ) ;
#216 = EDGE_LOOP ( 'NONE', ( #95 ) ) ;
#217 = DIRECTION ( 'NONE',  ( 3.887119496269961534E-31, -1.000000000000000000, 1.113315271952138988E-16 ) ) ;
#218 = LOCAL_TIME ( 13, 42, 32.00000000000000000, #22 ) ;
#219 = DIRECTION ( 'NONE',  ( 3.491481338843133355E-15, -0.0000000000000000000, 1.000000000000000000 ) ) ;
#220 = PRODUCT_RELATED_PRODUCT_CATEGORY ( 'detail', '', ( #202 ) ) ;
#221 = CARTESIAN_POINT ( 'NONE',  ( 6.982962677686268288E-15, 0.0000000000000000000, 2.000000000000000444 ) ) ;
#222 = DIRECTION ( 'NONE',  ( 3.491481338843133355E-15, -2.449293598294706414E-16, 1.000000000000000000 ) ) ;
#223 = FACE_BOUND ( 'NONE', #71, .T. ) ;
ENDSEC;
END-ISO-10303-21;
