ISO-10303-21;
HEADER;
FILE_DESCRIPTION (( 'STEP AP203' ),
    '1' );
FILE_NAME ('392838.step',
    '2021-12-09T12:42:32',
    ( '' ),
    ( '' ),
    'SwSTEP 2.0',
    'SolidWorks 2019',
    '' );
FILE_SCHEMA (( 'CONFIG_CONTROL_DESIGN' ));
ENDSEC;

DATA;
#1 = ORIENTED_EDGE ( 'NONE', *, *, #139, .F. ) ;
#2 = VERTEX_POINT ( 'NONE', #104 ) ;
#3 = DATE_AND_TIME ( #122, #50 ) ;
#4 = ORIENTED_EDGE ( 'NONE', *, *, #18, .T. ) ;
#5 = CALENDAR_DATE ( 2021, 9, 12 ) ;
#6 = COORDINATED_UNIVERSAL_TIME_OFFSET ( 1, 0, .AHEAD. ) ;
#7 = DIRECTION ( 'NONE',  ( 0.0000000000000000000, -1.000000000000000000, 0.0000000000000000000 ) ) ;
#8 = AXIS2_PLACEMENT_3D ( 'NONE', #114, #184, #67 ) ;
#9 = SECURITY_CLASSIFICATION_LEVEL ( 'unclassified' ) ;
#10 = DIRECTION ( 'NONE',  ( 0.0000000000000000000, 1.000000000000000000, 0.0000000000000000000 ) ) ;
#11 = PERSON_AND_ORGANIZATION ( #203, #23 ) ;
#12 = DIRECTION ( 'NONE',  ( -3.491481338843133355E-15, 2.449293598294706414E-16, -1.000000000000000000 ) ) ;
#13 = EDGE_LOOP ( 'NONE', ( #88 ) ) ;
#14 = APPLICATION_CONTEXT ( 'configuration controlled 3d designs of mechanical parts and assemblies' ) ;
#15 = CC_DESIGN_SECURITY_CLASSIFICATION ( #168, ( #181 ) ) ;
#16 = AXIS2_PLACEMENT_3D ( 'NONE', #130, #200, #128 ) ;
#17 = CC_DESIGN_DATE_AND_TIME_ASSIGNMENT ( #70, #197, ( #168 ) ) ;
#18 = EDGE_CURVE ( 'NONE', #58, #58, #89, .T. ) ;
#19 = AXIS2_PLACEMENT_3D ( 'NONE', #185, #163, #113 ) ;
#20 = CYLINDRICAL_SURFACE ( 'NONE', #137, 4.999999999999990230 ) ;
#21 = CARTESIAN_POINT ( 'NONE',  ( 7.681258945454893382E-14, -4.999999999999986677, 22.00000000000000000 ) ) ;
#22 = PERSON_AND_ORGANIZATION ( #203, #23 ) ;
#23 = ORGANIZATION ( 'UNSPECIFIED', 'UNSPECIFIED', '' ) ;
#24 = EDGE_LOOP ( 'NONE', ( #1 ) ) ;
#25 = CARTESIAN_POINT ( 'NONE',  ( 5.000000000000005329, 0.0000000000000000000, 1.499999999999982681 ) ) ;
#26 = EDGE_LOOP ( 'NONE', ( #42 ) ) ;
#27 = LOCAL_TIME ( 13, 42, 32.00000000000000000, #136 ) ;
#28 = ORIENTED_EDGE ( 'NONE', *, *, #18, .F. ) ;
#29 = APPROVAL_DATE_TIME ( #107, #45 ) ;
#30 = APPROVAL_PERSON_ORGANIZATION ( #22, #106, #87 ) ;
#31 = PERSON_AND_ORGANIZATION ( #203, #23 ) ;
#32 = CARTESIAN_POINT ( 'NONE',  ( 2.339292497024899474E-13, -8.572527594031472993E-15, 67.00000000000000000 ) ) ;
#33 = FACE_OUTER_BOUND ( 'NONE', #213, .T. ) ;
#34 = DIRECTION ( 'NONE',  ( 3.491481338843133355E-15, 1.113315271952138988E-16, 1.000000000000000000 ) ) ;
#35 = CIRCLE ( 'NONE', #134, 4.000000000000000888 ) ;
#36 = AXIS2_PLACEMENT_3D ( 'NONE', #180, #167, #41 ) ;
#37 = PLANE ( 'NONE',  #73 ) ;
#38 = DESIGN_CONTEXT ( 'detailed design', #149, 'design' ) ;
#39 = APPROVAL_STATUS ( 'not_yet_approved' ) ;
#40 = APPROVAL_PERSON_ORGANIZATION ( #31, #198, #59 ) ;
#41 = DIRECTION ( 'NONE',  ( 1.000000000000000000, 0.0000000000000000000, -3.491481338843133355E-15 ) ) ;
#42 = ORIENTED_EDGE ( 'NONE', *, *, #204, .F. ) ;
#43 = AXIS2_PLACEMENT_3D ( 'NONE', #78, #132, #147 ) ;
#44 = APPROVAL_STATUS ( 'not_yet_approved' ) ;
#45 = APPROVAL ( #92, 'UNSPECIFIED' ) ;
#46 = DIRECTION ( 'NONE',  ( 3.491481338843133355E-15, -2.449293598294706414E-16, 1.000000000000000000 ) ) ;
#47 = FACE_OUTER_BOUND ( 'NONE', #55, .T. ) ;
#48 = PLANE ( 'NONE',  #56 ) ;
#49 = FACE_OUTER_BOUND ( 'NONE', #141, .T. ) ;
#50 = LOCAL_TIME ( 13, 42, 32.00000000000000000, #192 ) ;
#51 = FACE_OUTER_BOUND ( 'NONE', #24, .T. ) ;
#52 = EDGE_CURVE ( 'NONE', #126, #126, #186, .T. ) ;
#53 = MECHANICAL_CONTEXT ( 'NONE', #14, 'mechanical' ) ;
#54 =( NAMED_UNIT ( * ) PLANE_ANGLE_UNIT ( ) SI_UNIT ( $, .RADIAN. ) );
#55 = EDGE_LOOP ( 'NONE', ( #218 ) ) ;
#56 = AXIS2_PLACEMENT_3D ( 'NONE', #32, #205, #164 ) ;
#57 = ADVANCED_FACE ( 'NONE', ( #100 ), #215, .F. ) ;
#58 = VERTEX_POINT ( 'NONE', #196 ) ;
#59 = APPROVAL_ROLE ( '' ) ;
#60 = AXIS2_PLACEMENT_3D ( 'NONE', #86, #120, #191 ) ;
#61 = CC_DESIGN_PERSON_AND_ORGANIZATION_ASSIGNMENT ( #169, #155, ( #145 ) ) ;
#62 = ORIENTED_EDGE ( 'NONE', *, *, #124, .F. ) ;
#63 = PERSON_AND_ORGANIZATION ( #203, #23 ) ;
#64 = DIRECTION ( 'NONE',  ( 3.491481338843133355E-15, 1.113315271952138988E-16, 1.000000000000000000 ) ) ;
#65 = CARTESIAN_POINT ( 'NONE',  ( 7.681258945454893382E-14, 2.449293598294705330E-15, 22.00000000000000000 ) ) ;
#66 = TOROIDAL_SURFACE ( 'NONE', #8, 3.500000000000000000, 1.500000000000000000 ) ;
#67 = DIRECTION ( 'NONE',  ( 1.000000000000000000, 0.0000000000000000000, -3.491481338843133355E-15 ) ) ;
#68 = FACE_OUTER_BOUND ( 'NONE', #91, .T. ) ;
#69 = EDGE_LOOP ( 'NONE', ( #4 ) ) ;
#70 = DATE_AND_TIME ( #76, #105 ) ;
#71 = ADVANCED_FACE ( 'NONE', ( #96 ), #101, .F. ) ;
#72 = PERSON_AND_ORGANIZATION_ROLE ( 'design_supplier' ) ;
#73 = AXIS2_PLACEMENT_3D ( 'NONE', #202, #34, #165 ) ;
#74 = CARTESIAN_POINT ( 'NONE',  ( 2.304377683636468267E-13, -8.327598234202001119E-15, 66.00000000000000000 ) ) ;
#75 = DIRECTION ( 'NONE',  ( 3.491481338843133355E-15, -0.0000000000000000000, 1.000000000000000000 ) ) ;
#76 = CALENDAR_DATE ( 2021, 9, 12 ) ;
#77 = ADVANCED_FACE ( 'NONE', ( #47 ), #48, .F. ) ;
#78 = CARTESIAN_POINT ( 'NONE',  ( 2.304377683636468267E-13, -8.327598234202001119E-15, 66.00000000000000000 ) ) ;
#79 = FACE_OUTER_BOUND ( 'NONE', #13, .T. ) ;
#80 = AXIS2_PLACEMENT_3D ( 'NONE', #74, #12, #10 ) ;
#81 = CC_DESIGN_PERSON_AND_ORGANIZATION_ASSIGNMENT ( #156, #222, ( #216 ) ) ;
#82 = LOCAL_TIME ( 13, 42, 32.00000000000000000, #94 ) ;
#83 = MANIFOLD_SOLID_BREP ( 'Corps-Déplacer/Copier1[2]', #95 ) ;
#84 = DIRECTION ( 'NONE',  ( 3.491481338843133355E-15, -2.449293598294706414E-16, 1.000000000000000000 ) ) ;
#85 = VERTEX_POINT ( 'NONE', #140 ) ;
#86 = CARTESIAN_POINT ( 'NONE',  ( 0.0000000000000000000, 0.0000000000000000000, 0.0000000000000000000 ) ) ;
#87 = APPROVAL_ROLE ( '' ) ;
#88 = ORIENTED_EDGE ( 'NONE', *, *, #219, .F. ) ;
#89 = CIRCLE ( 'NONE', #211, 4.999999999999989342 ) ;
#90 = MANIFOLD_SOLID_BREP ( 'Corps-Déplacer/Copier1[1]', #220 ) ;
#91 = EDGE_LOOP ( 'NONE', ( #93 ) ) ;
#92 = APPROVAL_STATUS ( 'not_yet_approved' ) ;
#93 = ORIENTED_EDGE ( 'NONE', *, *, #219, .T. ) ;
#94 = COORDINATED_UNIVERSAL_TIME_OFFSET ( 1, 0, .AHEAD. ) ;
#95 = CLOSED_SHELL ( 'NONE', ( #189, #57, #166, #187 ) ) ;
#96 = FACE_OUTER_BOUND ( 'NONE', #108, .T. ) ;
#97 = PRODUCT_RELATED_PRODUCT_CATEGORY ( 'detail', '', ( #145 ) ) ;
#98 = SHAPE_DEFINITION_REPRESENTATION ( #194, #117 ) ;
#99 = FACE_BOUND ( 'NONE', #26, .T. ) ;
#100 = FACE_OUTER_BOUND ( 'NONE', #69, .T. ) ;
#101 = PLANE ( 'NONE',  #112 ) ;
#102 = CIRCLE ( 'NONE', #43, 5.000000000000000888 ) ;
#103 = ADVANCED_FACE ( 'NONE', ( #99, #133 ), #125, .T. ) ;
#104 = CARTESIAN_POINT ( 'NONE',  ( 2.304377683636468267E-13, -5.000000000000009770, 66.00000000000000000 ) ) ;
#105 = LOCAL_TIME ( 13, 42, 32.00000000000000000, #6 ) ;
#106 = APPROVAL ( #39, 'UNSPECIFIED' ) ;
#107 = DATE_AND_TIME ( #158, #82 ) ;
#108 = EDGE_LOOP ( 'NONE', ( #209 ) ) ;
#109 = APPROVAL_DATE_TIME ( #129, #198 ) ;
#110 = COORDINATED_UNIVERSAL_TIME_OFFSET ( 1, 0, .AHEAD. ) ;
#111 = DIRECTION ( 'NONE',  ( 0.0000000000000000000, -1.000000000000000000, 0.0000000000000000000 ) ) ;
#112 = AXIS2_PLACEMENT_3D ( 'NONE', #65, #135, #162 ) ;
#113 = DIRECTION ( 'NONE',  ( -3.887119496269961534E-31, 1.000000000000000000, -1.113315271952138988E-16 ) ) ;
#114 = CARTESIAN_POINT ( 'NONE',  ( 5.237222008264700822E-15, 0.0000000000000000000, 1.500000000000000222 ) ) ;
#115 = FACE_OUTER_BOUND ( 'NONE', #144, .T. ) ;
#116 = AXIS2_PLACEMENT_3D ( 'NONE', #150, #75, #159 ) ;
#117 = ADVANCED_BREP_SHAPE_REPRESENTATION ( '392838', ( #90, #83, #60 ), #119 ) ;
#118 = FACE_OUTER_BOUND ( 'NONE', #171, .T. ) ;
#119 =( GEOMETRIC_REPRESENTATION_CONTEXT ( 3 ) GLOBAL_UNCERTAINTY_ASSIGNED_CONTEXT ( ( #121 ) ) GLOBAL_UNIT_ASSIGNED_CONTEXT ( ( #195, #54, #142 ) ) REPRESENTATION_CONTEXT ( 'NONE', 'WORKASPACE' ) );
#120 = DIRECTION ( 'NONE',  ( 0.0000000000000000000, 0.0000000000000000000, 1.000000000000000000 ) ) ;
#121 = UNCERTAINTY_MEASURE_WITH_UNIT (LENGTH_MEASURE( 1.000000000000000082E-05 ), #195, 'distance_accuracy_value', 'NONE');
#122 = CALENDAR_DATE ( 2021, 9, 12 ) ;
#123 = APPLICATION_PROTOCOL_DEFINITION ( 'international standard', 'config_control_design', 1994, #149 ) ;
#124 = EDGE_CURVE ( 'NONE', #2, #2, #102, .T. ) ;
#125 = CONICAL_SURFACE ( 'NONE', #80, 5.000000000000000888, 0.7853981633974479459 ) ;
#126 = VERTEX_POINT ( 'NONE', #21 ) ;
#127 = DATE_TIME_ROLE ( 'creation_date' ) ;
#128 = DIRECTION ( 'NONE',  ( 0.0000000000000000000, -1.000000000000000000, 0.0000000000000000000 ) ) ;
#129 = DATE_AND_TIME ( #5, #161 ) ;
#130 = CARTESIAN_POINT ( 'NONE',  ( 7.681258945454893382E-14, 2.449293598294707302E-15, 22.00000000000000000 ) ) ;
#131 = CC_DESIGN_APPROVAL ( #106, ( #216 ) ) ;
#132 = DIRECTION ( 'NONE',  ( 3.491481338843133355E-15, -2.449293598294706414E-16, 1.000000000000000000 ) ) ;
#133 = FACE_OUTER_BOUND ( 'NONE', #157, .T. ) ;
#134 = AXIS2_PLACEMENT_3D ( 'NONE', #199, #46, #111 ) ;
#135 = DIRECTION ( 'NONE',  ( 3.491481338843133355E-15, -2.449293598294706414E-16, 1.000000000000000000 ) ) ;
#136 = COORDINATED_UNIVERSAL_TIME_OFFSET ( 1, 0, .AHEAD. ) ;
#137 = AXIS2_PLACEMENT_3D ( 'NONE', #153, #221, #7 ) ;
#138 = CC_DESIGN_APPROVAL ( #45, ( #181 ) ) ;
#139 = EDGE_CURVE ( 'NONE', #207, #207, #188, .T. ) ;
#140 = CARTESIAN_POINT ( 'NONE',  ( 3.500000000000000000, 0.0000000000000000000, -1.178650381695676497E-14 ) ) ;
#141 = EDGE_LOOP ( 'NONE', ( #28 ) ) ;
#142 =( NAMED_UNIT ( * ) SI_UNIT ( $, .STERADIAN. ) SOLID_ANGLE_UNIT ( ) );
#143 = AXIS2_PLACEMENT_3D ( 'NONE', #148, #84, #217 ) ;
#144 = EDGE_LOOP ( 'NONE', ( #175 ) ) ;
#145 = PRODUCT ( '392838', '392838', '', ( #53 ) ) ;
#146 = PERSON_AND_ORGANIZATION ( #203, #23 ) ;
#147 = DIRECTION ( 'NONE',  ( 0.0000000000000000000, -1.000000000000000000, 0.0000000000000000000 ) ) ;
#148 = CARTESIAN_POINT ( 'NONE',  ( 2.339292497024899474E-13, -8.572527594031472993E-15, 67.00000000000000000 ) ) ;
#149 = APPLICATION_CONTEXT ( 'configuration controlled 3d designs of mechanical parts and assemblies' ) ;
#150 = CARTESIAN_POINT ( 'NONE',  ( 5.237222008264700822E-15, 0.0000000000000000000, 1.500000000000000222 ) ) ;
#151 = APPROVAL_PERSON_ORGANIZATION ( #11, #45, #172 ) ;
#152 = CARTESIAN_POINT ( 'NONE',  ( 7.681258945454893382E-14, 2.449293598294705330E-15, 22.00000000000000000 ) ) ;
#153 = CARTESIAN_POINT ( 'NONE',  ( 7.681258945454893382E-14, 2.449293598294705330E-15, 22.00000000000000000 ) ) ;
#154 = APPROVAL_DATE_TIME ( #3, #106 ) ;
#155 = PERSON_AND_ORGANIZATION_ROLE ( 'design_owner' ) ;
#156 = PERSON_AND_ORGANIZATION ( #203, #23 ) ;
#157 = EDGE_LOOP ( 'NONE', ( #193 ) ) ;
#158 = CALENDAR_DATE ( 2021, 9, 12 ) ;
#159 = DIRECTION ( 'NONE',  ( 1.000000000000000000, 0.0000000000000000000, -3.512815038853034366E-15 ) ) ;
#160 = ADVANCED_FACE ( 'NONE', ( #118, #33 ), #201, .T. ) ;
#161 = LOCAL_TIME ( 13, 42, 32.00000000000000000, #110 ) ;
#162 = DIRECTION ( 'NONE',  ( -8.551662891793917213E-31, -1.000000000000000000, -2.449293598294706414E-16 ) ) ;
#163 = DIRECTION ( 'NONE',  ( -3.491481338843133355E-15, -1.113315271952138988E-16, -1.000000000000000000 ) ) ;
#164 = DIRECTION ( 'NONE',  ( 8.551662891793917213E-31, 1.000000000000000000, 2.449293598294706414E-16 ) ) ;
#165 = DIRECTION ( 'NONE',  ( 3.887119496269961534E-31, -1.000000000000000000, 1.113315271952138988E-16 ) ) ;
#166 = ADVANCED_FACE ( 'NONE', ( #68, #51 ), #66, .T. ) ;
#167 = DIRECTION ( 'NONE',  ( 3.491481338843133355E-15, -0.0000000000000000000, 1.000000000000000000 ) ) ;
#168 = SECURITY_CLASSIFICATION ( '', '', #9 ) ;
#169 = PERSON_AND_ORGANIZATION ( #203, #23 ) ;
#170 = CC_DESIGN_PERSON_AND_ORGANIZATION_ASSIGNMENT ( #214, #72, ( #181 ) ) ;
#171 = EDGE_LOOP ( 'NONE', ( #62 ) ) ;
#172 = APPROVAL_ROLE ( '' ) ;
#173 = CIRCLE ( 'NONE', #36, 3.500000000000000000 ) ;
#174 = DATE_AND_TIME ( #190, #27 ) ;
#175 = ORIENTED_EDGE ( 'NONE', *, *, #139, .T. ) ;
#176 = PERSON_AND_ORGANIZATION_ROLE ( 'classification_officer' ) ;
#177 = CC_DESIGN_PERSON_AND_ORGANIZATION_ASSIGNMENT ( #146, #179, ( #181 ) ) ;
#178 = ORIENTED_EDGE ( 'NONE', *, *, #52, .T. ) ;
#179 = PERSON_AND_ORGANIZATION_ROLE ( 'creator' ) ;
#180 = CARTESIAN_POINT ( 'NONE',  ( 1.514188661106529085E-30, 0.0000000000000000000, 4.336808689942017736E-16 ) ) ;
#181 = PRODUCT_DEFINITION_FORMATION_WITH_SPECIFIED_SOURCE ( 'ANY', '', #145, .NOT_KNOWN. ) ;
#182 = DIRECTION ( 'NONE',  ( 0.0000000000000000000, -1.000000000000000000, 0.0000000000000000000 ) ) ;
#183 = CC_DESIGN_DATE_AND_TIME_ASSIGNMENT ( #174, #127, ( #216 ) ) ;
#184 = DIRECTION ( 'NONE',  ( 3.491481338843133355E-15, -0.0000000000000000000, 1.000000000000000000 ) ) ;
#185 = CARTESIAN_POINT ( 'NONE',  ( 7.681258945454893382E-14, 2.449293598294705330E-15, 22.00000000000000000 ) ) ;
#186 = CIRCLE ( 'NONE', #16, 4.999999999999989342 ) ;
#187 = ADVANCED_FACE ( 'NONE', ( #79 ), #37, .F. ) ;
#188 = CIRCLE ( 'NONE', #116, 5.000000000000000000 ) ;
#189 = ADVANCED_FACE ( 'NONE', ( #49, #115 ), #20, .T. ) ;
#190 = CALENDAR_DATE ( 2021, 9, 12 ) ;
#191 = DIRECTION ( 'NONE',  ( 1.000000000000000000, 0.0000000000000000000, 0.0000000000000000000 ) ) ;
#192 = COORDINATED_UNIVERSAL_TIME_OFFSET ( 1, 0, .AHEAD. ) ;
#193 = ORIENTED_EDGE ( 'NONE', *, *, #124, .T. ) ;
#194 = PRODUCT_DEFINITION_SHAPE ( 'NONE', 'NONE',  #216 ) ;
#195 =( LENGTH_UNIT ( ) NAMED_UNIT ( * ) SI_UNIT ( .MILLI., .METRE. ) );
#196 = CARTESIAN_POINT ( 'NONE',  ( 7.681258945454893382E-14, -4.999999999999986677, 22.00000000000000000 ) ) ;
#197 = DATE_TIME_ROLE ( 'classification_date' ) ;
#198 = APPROVAL ( #44, 'UNSPECIFIED' ) ;
#199 = CARTESIAN_POINT ( 'NONE',  ( 2.339292497024899474E-13, -8.572527594031472993E-15, 67.00000000000000000 ) ) ;
#200 = DIRECTION ( 'NONE',  ( 3.491481338843133355E-15, -2.449293598294706414E-16, 1.000000000000000000 ) ) ;
#201 = CYLINDRICAL_SURFACE ( 'NONE', #143, 4.999999999999995559 ) ;
#202 = CARTESIAN_POINT ( 'NONE',  ( -9.717798740674888726E-31, 4.999999999999992006, -2.783288179880343156E-16 ) ) ;
#203 = PERSON ( 'UNSPECIFIED', 'UNSPECIFIED', 'UNSPECIFIED', ('UNSPECIFIED'), ('UNSPECIFIED'), ('UNSPECIFIED') ) ;
#204 = EDGE_CURVE ( 'NONE', #212, #212, #35, .T. ) ;
#205 = DIRECTION ( 'NONE',  ( -3.491481338843133355E-15, 2.449293598294706414E-16, -1.000000000000000000 ) ) ;
#206 = CC_DESIGN_PERSON_AND_ORGANIZATION_ASSIGNMENT ( #63, #176, ( #168 ) ) ;
#207 = VERTEX_POINT ( 'NONE', #25 ) ;
#208 = APPLICATION_PROTOCOL_DEFINITION ( 'international standard', 'config_control_design', 1994, #14 ) ;
#209 = ORIENTED_EDGE ( 'NONE', *, *, #52, .F. ) ;
#210 = CARTESIAN_POINT ( 'NONE',  ( 2.339292497024899474E-13, -4.000000000000009770, 67.00000000000000000 ) ) ;
#211 = AXIS2_PLACEMENT_3D ( 'NONE', #152, #64, #182 ) ;
#212 = VERTEX_POINT ( 'NONE', #210 ) ;
#213 = EDGE_LOOP ( 'NONE', ( #178 ) ) ;
#214 = PERSON_AND_ORGANIZATION ( #203, #23 ) ;
#215 = PLANE ( 'NONE',  #19 ) ;
#216 = PRODUCT_DEFINITION ( 'UNKNOWN', '', #181, #38 ) ;
#217 = DIRECTION ( 'NONE',  ( 0.0000000000000000000, -1.000000000000000000, 0.0000000000000000000 ) ) ;
#218 = ORIENTED_EDGE ( 'NONE', *, *, #204, .T. ) ;
#219 = EDGE_CURVE ( 'NONE', #85, #85, #173, .T. ) ;
#220 = CLOSED_SHELL ( 'NONE', ( #71, #160, #103, #77 ) ) ;
#221 = DIRECTION ( 'NONE',  ( 3.491481338843133355E-15, 1.113315271952138988E-16, 1.000000000000000000 ) ) ;
#222 = PERSON_AND_ORGANIZATION_ROLE ( 'creator' ) ;
#223 = CC_DESIGN_APPROVAL ( #198, ( #168 ) ) ;
ENDSEC;
END-ISO-10303-21;
