ISO-10303-21;
HEADER;
FILE_DESCRIPTION (( 'STEP AP203' ),
    '1' );
FILE_NAME ('392837.step',
    '2021-12-09T12:42:31',
    ( '' ),
    ( '' ),
    'SwSTEP 2.0',
    'SolidWorks 2019',
    '' );
FILE_SCHEMA (( 'CONFIG_CONTROL_DESIGN' ));
ENDSEC;

DATA;
#1 = COORDINATED_UNIVERSAL_TIME_OFFSET ( 1, 0, .AHEAD. ) ;
#2 = ADVANCED_FACE ( 'NONE', ( #13 ), #80, .F. ) ;
#3 = APPROVAL_STATUS ( 'not_yet_approved' ) ;
#4 = CARTESIAN_POINT ( 'NONE',  ( 4.000000000000000000, 0.0000000000000000000, -1.396592535537253342E-14 ) ) ;
#5 = CC_DESIGN_PERSON_AND_ORGANIZATION_ASSIGNMENT ( #39, #150, ( #148 ) ) ;
#6 = ORIENTED_EDGE ( 'NONE', *, *, #133, .T. ) ;
#7 = AXIS2_PLACEMENT_3D ( 'NONE', #184, #215, #68 ) ;
#8 = CARTESIAN_POINT ( 'NONE',  ( 2.339292497024899474E-13, -8.572527594031472993E-15, 67.00000000000000000 ) ) ;
#9 =( LENGTH_UNIT ( ) NAMED_UNIT ( * ) SI_UNIT ( .MILLI., .METRE. ) );
#10 = CC_DESIGN_SECURITY_CLASSIFICATION ( #171, ( #22 ) ) ;
#11 = APPROVAL_DATE_TIME ( #185, #95 ) ;
#12 = AXIS2_PLACEMENT_3D ( 'NONE', #131, #36, #103 ) ;
#13 = FACE_OUTER_BOUND ( 'NONE', #108, .T. ) ;
#14 = FACE_OUTER_BOUND ( 'NONE', #43, .T. ) ;
#15 = PRODUCT_RELATED_PRODUCT_CATEGORY ( 'detail', '', ( #148 ) ) ;
#16 = DIRECTION ( 'NONE',  ( -3.491481338843133355E-15, -1.113315271952138988E-16, -1.000000000000000000 ) ) ;
#17 = DIRECTION ( 'NONE',  ( 0.0000000000000000000, -1.000000000000000000, 0.0000000000000000000 ) ) ;
#18 = AXIS2_PLACEMENT_3D ( 'NONE', #8, #94, #158 ) ;
#19 = DIRECTION ( 'NONE',  ( 0.0000000000000000000, 1.000000000000000000, 0.0000000000000000000 ) ) ;
#20 = PERSON_AND_ORGANIZATION ( #155, #220 ) ;
#21 = PERSON_AND_ORGANIZATION ( #155, #220 ) ;
#22 = PRODUCT_DEFINITION_FORMATION_WITH_SPECIFIED_SOURCE ( 'ANY', '', #148, .NOT_KNOWN. ) ;
#23 = PERSON_AND_ORGANIZATION ( #155, #220 ) ;
#24 = PERSON_AND_ORGANIZATION ( #155, #220 ) ;
#25 = CC_DESIGN_APPROVAL ( #187, ( #77 ) ) ;
#26 = EDGE_LOOP ( 'NONE', ( #110 ) ) ;
#27 = ORIENTED_EDGE ( 'NONE', *, *, #63, .F. ) ;
#28 = APPROVAL_PERSON_ORGANIZATION ( #21, #179, #168 ) ;
#29 = EDGE_CURVE ( 'NONE', #34, #34, #203, .T. ) ;
#30 = ADVANCED_BREP_SHAPE_REPRESENTATION ( '392837', ( #83, #141, #97 ), #195 ) ;
#31 = FACE_OUTER_BOUND ( 'NONE', #62, .T. ) ;
#32 = LOCAL_TIME ( 13, 42, 31.00000000000000000, #172 ) ;
#33 = DIRECTION ( 'NONE',  ( 3.491481338843133355E-15, -2.449293598294706414E-16, 1.000000000000000000 ) ) ;
#34 = VERTEX_POINT ( 'NONE', #102 ) ;
#35 = CIRCLE ( 'NONE', #12, 4.000000000000000000 ) ;
#36 = DIRECTION ( 'NONE',  ( 3.491481338843133355E-15, -0.0000000000000000000, 1.000000000000000000 ) ) ;
#37 = LOCAL_TIME ( 13, 42, 31.00000000000000000, #73 ) ;
#38 = CALENDAR_DATE ( 2021, 9, 12 ) ;
#39 = PERSON_AND_ORGANIZATION ( #155, #220 ) ;
#40 = PERSON_AND_ORGANIZATION_ROLE ( 'classification_officer' ) ;
#41 = CC_DESIGN_DATE_AND_TIME_ASSIGNMENT ( #47, #98, ( #171 ) ) ;
#42 = DIRECTION ( 'NONE',  ( 1.000000000000000000, 0.0000000000000000000, 0.0000000000000000000 ) ) ;
#43 = EDGE_LOOP ( 'NONE', ( #6 ) ) ;
#44 = ADVANCED_FACE ( 'NONE', ( #14 ), #147, .F. ) ;
#45 = EDGE_LOOP ( 'NONE', ( #123 ) ) ;
#46 = EDGE_LOOP ( 'NONE', ( #27 ) ) ;
#47 = DATE_AND_TIME ( #85, #32 ) ;
#48 = EDGE_CURVE ( 'NONE', #165, #165, #101, .T. ) ;
#49 = ORIENTED_EDGE ( 'NONE', *, *, #63, .T. ) ;
#50 = CARTESIAN_POINT ( 'NONE',  ( 3.491481338843134933E-15, 0.0000000000000000000, 1.000000000000000444 ) ) ;
#51 = APPLICATION_CONTEXT ( 'configuration controlled 3d designs of mechanical parts and assemblies' ) ;
#52 = DIRECTION ( 'NONE',  ( 3.491481338843133355E-15, 1.113315271952138988E-16, 1.000000000000000000 ) ) ;
#53 = CC_DESIGN_APPROVAL ( #179, ( #22 ) ) ;
#54 = PLANE ( 'NONE',  #192 ) ;
#55 = CARTESIAN_POINT ( 'NONE',  ( 2.339292497024899474E-13, -8.572527594031472993E-15, 67.00000000000000000 ) ) ;
#56 = CLOSED_SHELL ( 'NONE', ( #138, #140, #112, #58 ) ) ;
#57 = DIRECTION ( 'NONE',  ( -3.491481338843133355E-15, 2.449293598294706414E-16, -1.000000000000000000 ) ) ;
#58 = ADVANCED_FACE ( 'NONE', ( #115 ), #221, .F. ) ;
#59 = SECURITY_CLASSIFICATION_LEVEL ( 'unclassified' ) ;
#60 = APPROVAL_ROLE ( '' ) ;
#61 = CARTESIAN_POINT ( 'NONE',  ( 7.681258945454893382E-14, -4.999999999999986677, 22.00000000000000000 ) ) ;
#62 = EDGE_LOOP ( 'NONE', ( #154 ) ) ;
#63 = EDGE_CURVE ( 'NONE', #153, #153, #107, .T. ) ;
#64 = EDGE_LOOP ( 'NONE', ( #109 ) ) ;
#65 = APPROVAL_STATUS ( 'not_yet_approved' ) ;
#66 = DIRECTION ( 'NONE',  ( 3.491481338843133355E-15, 1.113315271952138988E-16, 1.000000000000000000 ) ) ;
#67 = FACE_OUTER_BOUND ( 'NONE', #46, .T. ) ;
#68 = DIRECTION ( 'NONE',  ( 1.000000000000000000, 0.0000000000000000000, -3.512815038853033577E-15 ) ) ;
#69 = FACE_BOUND ( 'NONE', #181, .T. ) ;
#70 = CC_DESIGN_APPROVAL ( #95, ( #171 ) ) ;
#71 = FACE_OUTER_BOUND ( 'NONE', #64, .T. ) ;
#72 = DATE_AND_TIME ( #38, #37 ) ;
#73 = COORDINATED_UNIVERSAL_TIME_OFFSET ( 1, 0, .AHEAD. ) ;
#74 = PRODUCT_DEFINITION_SHAPE ( 'NONE', 'NONE',  #77 ) ;
#75 = COORDINATED_UNIVERSAL_TIME_OFFSET ( 1, 0, .AHEAD. ) ;
#76 =( NAMED_UNIT ( * ) SI_UNIT ( $, .STERADIAN. ) SOLID_ANGLE_UNIT ( ) );
#77 = PRODUCT_DEFINITION ( 'UNKNOWN', '', #22, #205 ) ;
#78 = EDGE_CURVE ( 'NONE', #191, #191, #35, .T. ) ;
#79 = AXIS2_PLACEMENT_3D ( 'NONE', #55, #57, #114 ) ;
#80 = PLANE ( 'NONE',  #176 ) ;
#81 = DIRECTION ( 'NONE',  ( 3.491481338843133355E-15, -2.449293598294706414E-16, 1.000000000000000000 ) ) ;
#82 = FACE_OUTER_BOUND ( 'NONE', #160, .T. ) ;
#83 = MANIFOLD_SOLID_BREP ( 'Corps-Déplacer/Copier1[1]', #56 ) ;
#84 = CC_DESIGN_PERSON_AND_ORGANIZATION_ASSIGNMENT ( #194, #40, ( #171 ) ) ;
#85 = CALENDAR_DATE ( 2021, 9, 12 ) ;
#86 = AXIS2_PLACEMENT_3D ( 'NONE', #189, #127, #17 ) ;
#87 = DIRECTION ( 'NONE',  ( 3.491481338843133355E-15, -2.449293598294706414E-16, 1.000000000000000000 ) ) ;
#88 = DIRECTION ( 'NONE',  ( 0.0000000000000000000, -1.000000000000000000, 0.0000000000000000000 ) ) ;
#89 = PERSON_AND_ORGANIZATION_ROLE ( 'creator' ) ;
#90 = CC_DESIGN_DATE_AND_TIME_ASSIGNMENT ( #72, #104, ( #77 ) ) ;
#91 = CARTESIAN_POINT ( 'NONE',  ( 7.681258945454893382E-14, -4.999999999999986677, 22.00000000000000000 ) ) ;
#92 = APPROVAL_DATE_TIME ( #212, #187 ) ;
#93 = APPROVAL_PERSON_ORGANIZATION ( #24, #187, #60 ) ;
#94 = DIRECTION ( 'NONE',  ( 3.491481338843133355E-15, -2.449293598294706414E-16, 1.000000000000000000 ) ) ;
#95 = APPROVAL ( #65, 'UNSPECIFIED' ) ;
#96 = ORIENTED_EDGE ( 'NONE', *, *, #48, .T. ) ;
#97 = AXIS2_PLACEMENT_3D ( 'NONE', #223, #193, #42 ) ;
#98 = DATE_TIME_ROLE ( 'classification_date' ) ;
#99 = ORIENTED_EDGE ( 'NONE', *, *, #29, .F. ) ;
#100 = CARTESIAN_POINT ( 'NONE',  ( 7.681258945454893382E-14, 2.449293598294707302E-15, 22.00000000000000000 ) ) ;
#101 = CIRCLE ( 'NONE', #86, 5.000000000000000888 ) ;
#102 = CARTESIAN_POINT ( 'NONE',  ( 2.339292497024899474E-13, -4.000000000000009770, 67.00000000000000000 ) ) ;
#103 = DIRECTION ( 'NONE',  ( 1.000000000000000000, 0.0000000000000000000, -3.491481338843133355E-15 ) ) ;
#104 = DATE_TIME_ROLE ( 'creation_date' ) ;
#105 = CIRCLE ( 'NONE', #7, 5.000000000000000888 ) ;
#106 = PERSON_AND_ORGANIZATION_ROLE ( 'creator' ) ;
#107 = CIRCLE ( 'NONE', #135, 4.999999999999989342 ) ;
#108 = EDGE_LOOP ( 'NONE', ( #198 ) ) ;
#109 = ORIENTED_EDGE ( 'NONE', *, *, #48, .F. ) ;
#110 = ORIENTED_EDGE ( 'NONE', *, *, #78, .T. ) ;
#111 = PERSON_AND_ORGANIZATION ( #155, #220 ) ;
#112 = ADVANCED_FACE ( 'NONE', ( #69, #82 ), #156, .T. ) ;
#113 = DIRECTION ( 'NONE',  ( 1.000000000000000000, 0.0000000000000000000, -3.491481338843133355E-15 ) ) ;
#114 = DIRECTION ( 'NONE',  ( 8.551662891793917213E-31, 1.000000000000000000, 2.449293598294706414E-16 ) ) ;
#115 = FACE_OUTER_BOUND ( 'NONE', #211, .T. ) ;
#116 = DIRECTION ( 'NONE',  ( 0.0000000000000000000, -1.000000000000000000, 0.0000000000000000000 ) ) ;
#117 = LOCAL_TIME ( 13, 42, 31.00000000000000000, #162 ) ;
#118 = APPROVAL_DATE_TIME ( #209, #179 ) ;
#119 = LOCAL_TIME ( 13, 42, 31.00000000000000000, #1 ) ;
#120 =( NAMED_UNIT ( * ) PLANE_ANGLE_UNIT ( ) SI_UNIT ( $, .RADIAN. ) );
#121 = EDGE_CURVE ( 'NONE', #207, #207, #105, .T. ) ;
#122 = EDGE_LOOP ( 'NONE', ( #157 ) ) ;
#123 = ORIENTED_EDGE ( 'NONE', *, *, #121, .F. ) ;
#124 = CC_DESIGN_PERSON_AND_ORGANIZATION_ASSIGNMENT ( #20, #89, ( #22 ) ) ;
#125 = CARTESIAN_POINT ( 'NONE',  ( 7.681258945454893382E-14, 2.449293598294705330E-15, 22.00000000000000000 ) ) ;
#126 = CIRCLE ( 'NONE', #152, 4.999999999999989342 ) ;
#127 = DIRECTION ( 'NONE',  ( 3.491481338843133355E-15, -2.449293598294706414E-16, 1.000000000000000000 ) ) ;
#128 = DIRECTION ( 'NONE',  ( 3.491481338843133355E-15, 1.113315271952138988E-16, 1.000000000000000000 ) ) ;
#129 = CARTESIAN_POINT ( 'NONE',  ( 7.681258945454893382E-14, 2.449293598294705330E-15, 22.00000000000000000 ) ) ;
#130 = UNCERTAINTY_MEASURE_WITH_UNIT (LENGTH_MEASURE( 1.000000000000000082E-05 ), #9, 'distance_accuracy_value', 'NONE');
#131 = CARTESIAN_POINT ( 'NONE',  ( 0.0000000000000000000, 0.0000000000000000000, 0.0000000000000000000 ) ) ;
#132 = APPROVAL_STATUS ( 'not_yet_approved' ) ;
#133 = EDGE_CURVE ( 'NONE', #170, #170, #126, .T. ) ;
#134 = APPLICATION_PROTOCOL_DEFINITION ( 'international standard', 'config_control_design', 1994, #51 ) ;
#135 = AXIS2_PLACEMENT_3D ( 'NONE', #100, #81, #116 ) ;
#136 = CALENDAR_DATE ( 2021, 9, 12 ) ;
#137 = CARTESIAN_POINT ( 'NONE',  ( 2.304377683636468267E-13, -5.000000000000009770, 66.00000000000000000 ) ) ;
#138 = ADVANCED_FACE ( 'NONE', ( #67 ), #54, .F. ) ;
#139 = CALENDAR_DATE ( 2021, 9, 12 ) ;
#140 = ADVANCED_FACE ( 'NONE', ( #71, #216 ), #186, .T. ) ;
#141 = MANIFOLD_SOLID_BREP ( 'Corps-Déplacer/Copier1[2]', #144 ) ;
#142 = CARTESIAN_POINT ( 'NONE',  ( 2.304377683636468267E-13, -8.327598234202001119E-15, 66.00000000000000000 ) ) ;
#143 = DIRECTION ( 'NONE',  ( 0.0000000000000000000, -1.000000000000000000, 0.0000000000000000000 ) ) ;
#144 = CLOSED_SHELL ( 'NONE', ( #200, #44, #174, #2 ) ) ;
#145 = APPROVAL_ROLE ( '' ) ;
#146 = CYLINDRICAL_SURFACE ( 'NONE', #213, 4.999999999999990230 ) ;
#147 = PLANE ( 'NONE',  #217 ) ;
#148 = PRODUCT ( '392837', '392837', '', ( #190 ) ) ;
#149 = FACE_OUTER_BOUND ( 'NONE', #45, .T. ) ;
#150 = PERSON_AND_ORGANIZATION_ROLE ( 'design_owner' ) ;
#151 = APPLICATION_PROTOCOL_DEFINITION ( 'international standard', 'config_control_design', 1994, #161 ) ;
#152 = AXIS2_PLACEMENT_3D ( 'NONE', #202, #52, #143 ) ;
#153 = VERTEX_POINT ( 'NONE', #61 ) ;
#154 = ORIENTED_EDGE ( 'NONE', *, *, #121, .T. ) ;
#155 = PERSON ( 'UNSPECIFIED', 'UNSPECIFIED', 'UNSPECIFIED', ('UNSPECIFIED'), ('UNSPECIFIED'), ('UNSPECIFIED') ) ;
#156 = CONICAL_SURFACE ( 'NONE', #222, 5.000000000000000888, 0.7853981633974479459 ) ;
#157 = ORIENTED_EDGE ( 'NONE', *, *, #133, .F. ) ;
#158 = DIRECTION ( 'NONE',  ( 0.0000000000000000000, -1.000000000000000000, 0.0000000000000000000 ) ) ;
#159 = CALENDAR_DATE ( 2021, 9, 12 ) ;
#160 = EDGE_LOOP ( 'NONE', ( #96 ) ) ;
#161 = APPLICATION_CONTEXT ( 'configuration controlled 3d designs of mechanical parts and assemblies' ) ;
#162 = COORDINATED_UNIVERSAL_TIME_OFFSET ( 1, 0, .AHEAD. ) ;
#163 = FACE_OUTER_BOUND ( 'NONE', #122, .T. ) ;
#164 = AXIS2_PLACEMENT_3D ( 'NONE', #50, #182, #113 ) ;
#165 = VERTEX_POINT ( 'NONE', #137 ) ;
#166 = DIRECTION ( 'NONE',  ( -3.491481338843133355E-15, 2.449293598294706414E-16, -1.000000000000000000 ) ) ;
#167 = CC_DESIGN_PERSON_AND_ORGANIZATION_ASSIGNMENT ( #210, #106, ( #77 ) ) ;
#168 = APPROVAL_ROLE ( '' ) ;
#169 = CARTESIAN_POINT ( 'NONE',  ( 5.000000000000004441, 0.0000000000000000000, 0.9999999999999829026 ) ) ;
#170 = VERTEX_POINT ( 'NONE', #91 ) ;
#171 = SECURITY_CLASSIFICATION ( '', '', #59 ) ;
#172 = COORDINATED_UNIVERSAL_TIME_OFFSET ( 1, 0, .AHEAD. ) ;
#173 = TOROIDAL_SURFACE ( 'NONE', #164, 4.000000000000000000, 1.000000000000000666 ) ;
#174 = ADVANCED_FACE ( 'NONE', ( #204, #149 ), #173, .T. ) ;
#175 = CARTESIAN_POINT ( 'NONE',  ( -9.717798740674888726E-31, 4.999999999999992006, -2.783288179880343156E-16 ) ) ;
#176 = AXIS2_PLACEMENT_3D ( 'NONE', #175, #66, #177 ) ;
#177 = DIRECTION ( 'NONE',  ( 3.887119496269961534E-31, -1.000000000000000000, 1.113315271952138988E-16 ) ) ;
#178 = EDGE_LOOP ( 'NONE', ( #49 ) ) ;
#179 = APPROVAL ( #3, 'UNSPECIFIED' ) ;
#180 = APPROVAL_PERSON_ORGANIZATION ( #111, #95, #145 ) ;
#181 = EDGE_LOOP ( 'NONE', ( #99 ) ) ;
#182 = DIRECTION ( 'NONE',  ( 3.491481338843133355E-15, -0.0000000000000000000, 1.000000000000000000 ) ) ;
#183 = SHAPE_DEFINITION_REPRESENTATION ( #74, #30 ) ;
#184 = CARTESIAN_POINT ( 'NONE',  ( 3.491481338843134933E-15, 0.0000000000000000000, 1.000000000000000444 ) ) ;
#185 = DATE_AND_TIME ( #159, #117 ) ;
#186 = CYLINDRICAL_SURFACE ( 'NONE', #208, 4.999999999999995559 ) ;
#187 = APPROVAL ( #132, 'UNSPECIFIED' ) ;
#188 = DIRECTION ( 'NONE',  ( 0.0000000000000000000, -1.000000000000000000, 0.0000000000000000000 ) ) ;
#189 = CARTESIAN_POINT ( 'NONE',  ( 2.304377683636468267E-13, -8.327598234202001119E-15, 66.00000000000000000 ) ) ;
#190 = MECHANICAL_CONTEXT ( 'NONE', #161, 'mechanical' ) ;
#191 = VERTEX_POINT ( 'NONE', #4 ) ;
#192 = AXIS2_PLACEMENT_3D ( 'NONE', #125, #87, #219 ) ;
#193 = DIRECTION ( 'NONE',  ( 0.0000000000000000000, 0.0000000000000000000, 1.000000000000000000 ) ) ;
#194 = PERSON_AND_ORGANIZATION ( #155, #220 ) ;
#195 =( GEOMETRIC_REPRESENTATION_CONTEXT ( 3 ) GLOBAL_UNCERTAINTY_ASSIGNED_CONTEXT ( ( #130 ) ) GLOBAL_UNIT_ASSIGNED_CONTEXT ( ( #9, #120, #76 ) ) REPRESENTATION_CONTEXT ( 'NONE', 'WORKASPACE' ) );
#196 = CC_DESIGN_PERSON_AND_ORGANIZATION_ASSIGNMENT ( #23, #206, ( #22 ) ) ;
#197 = ORIENTED_EDGE ( 'NONE', *, *, #29, .T. ) ;
#198 = ORIENTED_EDGE ( 'NONE', *, *, #78, .F. ) ;
#199 = CARTESIAN_POINT ( 'NONE',  ( 2.339292497024899474E-13, -8.572527594031472993E-15, 67.00000000000000000 ) ) ;
#200 = ADVANCED_FACE ( 'NONE', ( #163, #31 ), #146, .T. ) ;
#201 = DIRECTION ( 'NONE',  ( -3.887119496269961534E-31, 1.000000000000000000, -1.113315271952138988E-16 ) ) ;
#202 = CARTESIAN_POINT ( 'NONE',  ( 7.681258945454893382E-14, 2.449293598294705330E-15, 22.00000000000000000 ) ) ;
#203 = CIRCLE ( 'NONE', #18, 4.000000000000000888 ) ;
#204 = FACE_OUTER_BOUND ( 'NONE', #26, .T. ) ;
#205 = DESIGN_CONTEXT ( 'detailed design', #51, 'design' ) ;
#206 = PERSON_AND_ORGANIZATION_ROLE ( 'design_supplier' ) ;
#207 = VERTEX_POINT ( 'NONE', #169 ) ;
#208 = AXIS2_PLACEMENT_3D ( 'NONE', #199, #33, #88 ) ;
#209 = DATE_AND_TIME ( #136, #214 ) ;
#210 = PERSON_AND_ORGANIZATION ( #155, #220 ) ;
#211 = EDGE_LOOP ( 'NONE', ( #197 ) ) ;
#212 = DATE_AND_TIME ( #139, #119 ) ;
#213 = AXIS2_PLACEMENT_3D ( 'NONE', #218, #128, #188 ) ;
#214 = LOCAL_TIME ( 13, 42, 31.00000000000000000, #75 ) ;
#215 = DIRECTION ( 'NONE',  ( 3.491481338843133355E-15, -0.0000000000000000000, 1.000000000000000000 ) ) ;
#216 = FACE_OUTER_BOUND ( 'NONE', #178, .T. ) ;
#217 = AXIS2_PLACEMENT_3D ( 'NONE', #129, #16, #201 ) ;
#218 = CARTESIAN_POINT ( 'NONE',  ( 7.681258945454893382E-14, 2.449293598294705330E-15, 22.00000000000000000 ) ) ;
#219 = DIRECTION ( 'NONE',  ( -8.551662891793917213E-31, -1.000000000000000000, -2.449293598294706414E-16 ) ) ;
#220 = ORGANIZATION ( 'UNSPECIFIED', 'UNSPECIFIED', '' ) ;
#221 = PLANE ( 'NONE',  #79 ) ;
#222 = AXIS2_PLACEMENT_3D ( 'NONE', #142, #166, #19 ) ;
#223 = CARTESIAN_POINT ( 'NONE',  ( 0.0000000000000000000, 0.0000000000000000000, 0.0000000000000000000 ) ) ;
ENDSEC;
END-ISO-10303-21;
