ISO-10303-21;
HEADER;
FILE_DESCRIPTION (( 'STEP AP203' ),
    '1' );
FILE_NAME ('392836.step',
    '2021-12-09T12:42:30',
    ( '' ),
    ( '' ),
    'SwSTEP 2.0',
    'SolidWorks 2019',
    '' );
FILE_SCHEMA (( 'CONFIG_CONTROL_DESIGN' ));
ENDSEC;

DATA;
#1 = EDGE_LOOP ( 'NONE', ( #182 ) ) ;
#2 = CIRCLE ( 'NONE', #57, 4.499999999999999112 ) ;
#3 = ORGANIZATION ( 'UNSPECIFIED', 'UNSPECIFIED', '' ) ;
#4 = FACE_OUTER_BOUND ( 'NONE', #169, .T. ) ;
#5 = ADVANCED_FACE ( 'NONE', ( #66, #133 ), #131, .T. ) ;
#6 = CARTESIAN_POINT ( 'NONE',  ( 7.681258945454893382E-14, 2.449293598294705330E-15, 22.00000000000000000 ) ) ;
#7 = FACE_OUTER_BOUND ( 'NONE', #39, .T. ) ;
#8 = DIRECTION ( 'NONE',  ( 8.551662891793917213E-31, 1.000000000000000000, 2.449293598294706414E-16 ) ) ;
#9 = AXIS2_PLACEMENT_3D ( 'NONE', #23, #124, #172 ) ;
#10 = PRODUCT_DEFINITION_FORMATION_WITH_SPECIFIED_SOURCE ( 'ANY', '', #156, .NOT_KNOWN. ) ;
#11 = VERTEX_POINT ( 'NONE', #143 ) ;
#12 = VERTEX_POINT ( 'NONE', #123 ) ;
#13 = APPROVAL_DATE_TIME ( #49, #14 ) ;
#14 = APPROVAL ( #82, 'UNSPECIFIED' ) ;
#15 = DATE_TIME_ROLE ( 'classification_date' ) ;
#16 = CALENDAR_DATE ( 2021, 9, 12 ) ;
#17 = APPLICATION_PROTOCOL_DEFINITION ( 'international standard', 'config_control_design', 1994, #73 ) ;
#18 = EDGE_LOOP ( 'NONE', ( #129 ) ) ;
#19 = PERSON_AND_ORGANIZATION ( #187, #3 ) ;
#20 = EDGE_LOOP ( 'NONE', ( #168 ) ) ;
#21 = DIRECTION ( 'NONE',  ( 0.0000000000000000000, -1.000000000000000000, 0.0000000000000000000 ) ) ;
#22 = CC_DESIGN_APPROVAL ( #14, ( #170 ) ) ;
#23 = CARTESIAN_POINT ( 'NONE',  ( 1.745740669421567467E-15, 0.0000000000000000000, 0.5000000000000002220 ) ) ;
#24 = FACE_OUTER_BOUND ( 'NONE', #85, .T. ) ;
#25 = CARTESIAN_POINT ( 'NONE',  ( 2.339292497024899474E-13, -8.572527594031472993E-15, 67.00000000000000000 ) ) ;
#26 = CIRCLE ( 'NONE', #220, 4.000000000000000888 ) ;
#27 = LOCAL_TIME ( 13, 42, 30.00000000000000000, #67 ) ;
#28 = ADVANCED_FACE ( 'NONE', ( #4 ), #137, .F. ) ;
#29 = PLANE ( 'NONE',  #119 ) ;
#30 = APPROVAL_ROLE ( '' ) ;
#31 = CARTESIAN_POINT ( 'NONE',  ( 0.0000000000000000000, 0.0000000000000000000, 0.0000000000000000000 ) ) ;
#32 = CARTESIAN_POINT ( 'NONE',  ( 2.339292497024899474E-13, -4.000000000000009770, 67.00000000000000000 ) ) ;
#33 = ORIENTED_EDGE ( 'NONE', *, *, #45, .F. ) ;
#34 = APPROVAL_STATUS ( 'not_yet_approved' ) ;
#35 = ADVANCED_FACE ( 'NONE', ( #191 ), #106, .F. ) ;
#36 = AXIS2_PLACEMENT_3D ( 'NONE', #177, #122, #215 ) ;
#37 = CC_DESIGN_SECURITY_CLASSIFICATION ( #88, ( #10 ) ) ;
#38 = APPROVAL_DATE_TIME ( #136, #176 ) ;
#39 = EDGE_LOOP ( 'NONE', ( #48 ) ) ;
#40 = AXIS2_PLACEMENT_3D ( 'NONE', #58, #110, #214 ) ;
#41 = FACE_BOUND ( 'NONE', #207, .T. ) ;
#42 = CARTESIAN_POINT ( 'NONE',  ( 7.681258945454893382E-14, -4.999999999999986677, 22.00000000000000000 ) ) ;
#43 = CARTESIAN_POINT ( 'NONE',  ( 7.681258945454893382E-14, 2.449293598294705330E-15, 22.00000000000000000 ) ) ;
#44 = CARTESIAN_POINT ( 'NONE',  ( 5.000000000000000888, 0.0000000000000000000, 0.4999999999999827915 ) ) ;
#45 = EDGE_CURVE ( 'NONE', #78, #78, #203, .T. ) ;
#46 = DIRECTION ( 'NONE',  ( -3.491481338843133355E-15, 2.449293598294706414E-16, -1.000000000000000000 ) ) ;
#47 = COORDINATED_UNIVERSAL_TIME_OFFSET ( 1, 0, .AHEAD. ) ;
#48 = ORIENTED_EDGE ( 'NONE', *, *, #68, .T. ) ;
#49 = DATE_AND_TIME ( #148, #114 ) ;
#50 = APPLICATION_CONTEXT ( 'configuration controlled 3d designs of mechanical parts and assemblies' ) ;
#51 = ADVANCED_FACE ( 'NONE', ( #24 ), #144, .F. ) ;
#52 = CC_DESIGN_PERSON_AND_ORGANIZATION_ASSIGNMENT ( #130, #162, ( #88 ) ) ;
#53 = CC_DESIGN_APPROVAL ( #135, ( #10 ) ) ;
#54 = DESIGN_CONTEXT ( 'detailed design', #73, 'design' ) ;
#55 = ORIENTED_EDGE ( 'NONE', *, *, #183, .F. ) ;
#56 = DIRECTION ( 'NONE',  ( 3.491481338843133355E-15, 1.113315271952138988E-16, 1.000000000000000000 ) ) ;
#57 = AXIS2_PLACEMENT_3D ( 'NONE', #178, #93, #140 ) ;
#58 = CARTESIAN_POINT ( 'NONE',  ( 7.681258945454893382E-14, 2.449293598294705330E-15, 22.00000000000000000 ) ) ;
#59 = FACE_OUTER_BOUND ( 'NONE', #102, .T. ) ;
#60 = DIRECTION ( 'NONE',  ( -3.491481338843133355E-15, 2.449293598294706414E-16, -1.000000000000000000 ) ) ;
#61 = DIRECTION ( 'NONE',  ( 3.491481338843133355E-15, 1.113315271952138988E-16, 1.000000000000000000 ) ) ;
#62 = PERSON_AND_ORGANIZATION_ROLE ( 'creator' ) ;
#63 = PERSON_AND_ORGANIZATION_ROLE ( 'design_supplier' ) ;
#64 = EDGE_LOOP ( 'NONE', ( #186 ) ) ;
#65 = DATE_AND_TIME ( #112, #27 ) ;
#66 = FACE_OUTER_BOUND ( 'NONE', #117, .T. ) ;
#67 = COORDINATED_UNIVERSAL_TIME_OFFSET ( 1, 0, .AHEAD. ) ;
#68 = EDGE_CURVE ( 'NONE', #11, #11, #103, .T. ) ;
#69 = ORIENTED_EDGE ( 'NONE', *, *, #68, .F. ) ;
#70 = ADVANCED_BREP_SHAPE_REPRESENTATION ( '392836', ( #196, #197, #97 ), #138 ) ;
#71 = UNCERTAINTY_MEASURE_WITH_UNIT (LENGTH_MEASURE( 1.000000000000000082E-05 ), #179, 'distance_accuracy_value', 'NONE');
#72 = ORIENTED_EDGE ( 'NONE', *, *, #166, .F. ) ;
#73 = APPLICATION_CONTEXT ( 'configuration controlled 3d designs of mechanical parts and assemblies' ) ;
#74 = DIRECTION ( 'NONE',  ( 0.0000000000000000000, -1.000000000000000000, 0.0000000000000000000 ) ) ;
#75 = EDGE_CURVE ( 'NONE', #76, #76, #96, .T. ) ;
#76 = VERTEX_POINT ( 'NONE', #44 ) ;
#77 = FACE_OUTER_BOUND ( 'NONE', #18, .T. ) ;
#78 = VERTEX_POINT ( 'NONE', #118 ) ;
#79 = DIRECTION ( 'NONE',  ( 0.0000000000000000000, 0.0000000000000000000, 1.000000000000000000 ) ) ;
#80 = APPLICATION_PROTOCOL_DEFINITION ( 'international standard', 'config_control_design', 1994, #50 ) ;
#81 = DATE_AND_TIME ( #16, #153 ) ;
#82 = APPROVAL_STATUS ( 'not_yet_approved' ) ;
#83 = CC_DESIGN_PERSON_AND_ORGANIZATION_ASSIGNMENT ( #111, #185, ( #10 ) ) ;
#84 = PRODUCT_RELATED_PRODUCT_CATEGORY ( 'detail', '', ( #156 ) ) ;
#85 = EDGE_LOOP ( 'NONE', ( #139 ) ) ;
#86 = AXIS2_PLACEMENT_3D ( 'NONE', #188, #46, #8 ) ;
#87 = AXIS2_PLACEMENT_3D ( 'NONE', #104, #167, #21 ) ;
#88 = SECURITY_CLASSIFICATION ( '', '', #221 ) ;
#89 = EDGE_CURVE ( 'NONE', #12, #12, #2, .T. ) ;
#90 = DIRECTION ( 'NONE',  ( 0.0000000000000000000, -1.000000000000000000, 0.0000000000000000000 ) ) ;
#91 = CARTESIAN_POINT ( 'NONE',  ( 7.681258945454893382E-14, 2.449293598294707302E-15, 22.00000000000000000 ) ) ;
#92 = CIRCLE ( 'NONE', #199, 4.999999999999989342 ) ;
#93 = DIRECTION ( 'NONE',  ( 3.491481338843133355E-15, -0.0000000000000000000, 1.000000000000000000 ) ) ;
#94 = DIRECTION ( 'NONE',  ( 3.491481338843133355E-15, -2.449293598294706414E-16, 1.000000000000000000 ) ) ;
#95 = CALENDAR_DATE ( 2021, 9, 12 ) ;
#96 = CIRCLE ( 'NONE', #9, 4.999999999999999112 ) ;
#97 = AXIS2_PLACEMENT_3D ( 'NONE', #31, #79, #147 ) ;
#98 =( NAMED_UNIT ( * ) PLANE_ANGLE_UNIT ( ) SI_UNIT ( $, .RADIAN. ) );
#99 = EDGE_LOOP ( 'NONE', ( #204 ) ) ;
#100 = APPROVAL_ROLE ( '' ) ;
#101 = APPROVAL_PERSON_ORGANIZATION ( #19, #176, #100 ) ;
#102 = EDGE_LOOP ( 'NONE', ( #69 ) ) ;
#103 = CIRCLE ( 'NONE', #192, 4.999999999999989342 ) ;
#104 = CARTESIAN_POINT ( 'NONE',  ( 7.681258945454893382E-14, 2.449293598294705330E-15, 22.00000000000000000 ) ) ;
#105 = ADVANCED_FACE ( 'NONE', ( #59 ), #29, .F. ) ;
#106 = PLANE ( 'NONE',  #40 ) ;
#107 = VERTEX_POINT ( 'NONE', #32 ) ;
#108 = DIRECTION ( 'NONE',  ( 0.0000000000000000000, -1.000000000000000000, 0.0000000000000000000 ) ) ;
#109 = VERTEX_POINT ( 'NONE', #42 ) ;
#110 = DIRECTION ( 'NONE',  ( -3.491481338843133355E-15, -1.113315271952138988E-16, -1.000000000000000000 ) ) ;
#111 = PERSON_AND_ORGANIZATION ( #187, #3 ) ;
#112 = CALENDAR_DATE ( 2021, 9, 12 ) ;
#113 = MECHANICAL_CONTEXT ( 'NONE', #50, 'mechanical' ) ;
#114 = LOCAL_TIME ( 13, 42, 30.00000000000000000, #180 ) ;
#115 = EDGE_LOOP ( 'NONE', ( #33 ) ) ;
#116 = CONICAL_SURFACE ( 'NONE', #127, 5.000000000000000888, 0.7853981633974479459 ) ;
#117 = EDGE_LOOP ( 'NONE', ( #72 ) ) ;
#118 = CARTESIAN_POINT ( 'NONE',  ( 2.304377683636468267E-13, -5.000000000000009770, 66.00000000000000000 ) ) ;
#119 = AXIS2_PLACEMENT_3D ( 'NONE', #6, #158, #198 ) ;
#120 = LOCAL_TIME ( 13, 42, 30.00000000000000000, #47 ) ;
#121 = CYLINDRICAL_SURFACE ( 'NONE', #174, 4.999999999999995559 ) ;
#122 = DIRECTION ( 'NONE',  ( 3.491481338843133355E-15, -0.0000000000000000000, 1.000000000000000000 ) ) ;
#123 = CARTESIAN_POINT ( 'NONE',  ( 4.499999999999999112, 0.0000000000000000000, -1.549482559029699606E-14 ) ) ;
#124 = DIRECTION ( 'NONE',  ( 3.491481338843133355E-15, -0.0000000000000000000, 1.000000000000000000 ) ) ;
#125 = CC_DESIGN_PERSON_AND_ORGANIZATION_ASSIGNMENT ( #151, #62, ( #170 ) ) ;
#126 = CC_DESIGN_PERSON_AND_ORGANIZATION_ASSIGNMENT ( #206, #63, ( #10 ) ) ;
#127 = AXIS2_PLACEMENT_3D ( 'NONE', #210, #60, #161 ) ;
#128 = COORDINATED_UNIVERSAL_TIME_OFFSET ( 1, 0, .AHEAD. ) ;
#129 = ORIENTED_EDGE ( 'NONE', *, *, #45, .T. ) ;
#130 = PERSON_AND_ORGANIZATION ( #187, #3 ) ;
#131 = CYLINDRICAL_SURFACE ( 'NONE', #87, 4.999999999999990230 ) ;
#132 =( NAMED_UNIT ( * ) SI_UNIT ( $, .STERADIAN. ) SOLID_ANGLE_UNIT ( ) );
#133 = FACE_OUTER_BOUND ( 'NONE', #99, .T. ) ;
#134 = CLOSED_SHELL ( 'NONE', ( #5, #35, #152, #51 ) ) ;
#135 = APPROVAL ( #34, 'UNSPECIFIED' ) ;
#136 = DATE_AND_TIME ( #223, #175 ) ;
#137 = PLANE ( 'NONE',  #86 ) ;
#138 =( GEOMETRIC_REPRESENTATION_CONTEXT ( 3 ) GLOBAL_UNCERTAINTY_ASSIGNED_CONTEXT ( ( #71 ) ) GLOBAL_UNIT_ASSIGNED_CONTEXT ( ( #179, #98, #132 ) ) REPRESENTATION_CONTEXT ( 'NONE', 'WORKASPACE' ) );
#139 = ORIENTED_EDGE ( 'NONE', *, *, #89, .F. ) ;
#140 = DIRECTION ( 'NONE',  ( 1.000000000000000000, 0.0000000000000000000, -3.491481338843133355E-15 ) ) ;
#141 = DIRECTION ( 'NONE',  ( 3.491481338843133355E-15, -2.449293598294706414E-16, 1.000000000000000000 ) ) ;
#142 = CARTESIAN_POINT ( 'NONE',  ( 2.304377683636468267E-13, -8.327598234202001119E-15, 66.00000000000000000 ) ) ;
#143 = CARTESIAN_POINT ( 'NONE',  ( 7.681258945454893382E-14, -4.999999999999986677, 22.00000000000000000 ) ) ;
#144 = PLANE ( 'NONE',  #154 ) ;
#145 = ADVANCED_FACE ( 'NONE', ( #41, #77 ), #116, .T. ) ;
#146 = CC_DESIGN_APPROVAL ( #176, ( #88 ) ) ;
#147 = DIRECTION ( 'NONE',  ( 1.000000000000000000, 0.0000000000000000000, 0.0000000000000000000 ) ) ;
#148 = CALENDAR_DATE ( 2021, 9, 12 ) ;
#149 = DATE_TIME_ROLE ( 'creation_date' ) ;
#150 = APPROVAL_DATE_TIME ( #65, #135 ) ;
#151 = PERSON_AND_ORGANIZATION ( #187, #3 ) ;
#152 = ADVANCED_FACE ( 'NONE', ( #213, #211 ), #212, .T. ) ;
#153 = LOCAL_TIME ( 13, 42, 30.00000000000000000, #128 ) ;
#154 = AXIS2_PLACEMENT_3D ( 'NONE', #171, #61, #155 ) ;
#155 = DIRECTION ( 'NONE',  ( 3.887119496269961534E-31, -1.000000000000000000, 1.113315271952138988E-16 ) ) ;
#156 = PRODUCT ( '392836', '392836', '', ( #113 ) ) ;
#157 = DIRECTION ( 'NONE',  ( 0.0000000000000000000, -1.000000000000000000, 0.0000000000000000000 ) ) ;
#158 = DIRECTION ( 'NONE',  ( 3.491481338843133355E-15, -2.449293598294706414E-16, 1.000000000000000000 ) ) ;
#159 = APPROVAL_PERSON_ORGANIZATION ( #219, #135, #30 ) ;
#160 = DIRECTION ( 'NONE',  ( 0.0000000000000000000, -1.000000000000000000, 0.0000000000000000000 ) ) ;
#161 = DIRECTION ( 'NONE',  ( 0.0000000000000000000, 1.000000000000000000, 0.0000000000000000000 ) ) ;
#162 = PERSON_AND_ORGANIZATION_ROLE ( 'classification_officer' ) ;
#163 = AXIS2_PLACEMENT_3D ( 'NONE', #142, #195, #157 ) ;
#164 = DATE_AND_TIME ( #95, #120 ) ;
#165 = COORDINATED_UNIVERSAL_TIME_OFFSET ( 1, 0, .AHEAD. ) ;
#166 = EDGE_CURVE ( 'NONE', #109, #109, #92, .T. ) ;
#167 = DIRECTION ( 'NONE',  ( 3.491481338843133355E-15, 1.113315271952138988E-16, 1.000000000000000000 ) ) ;
#168 = ORIENTED_EDGE ( 'NONE', *, *, #75, .F. ) ;
#169 = EDGE_LOOP ( 'NONE', ( #189 ) ) ;
#170 = PRODUCT_DEFINITION ( 'UNKNOWN', '', #10, #54 ) ;
#171 = CARTESIAN_POINT ( 'NONE',  ( -9.717798740674888726E-31, 4.999999999999992006, -2.783288179880343156E-16 ) ) ;
#172 = DIRECTION ( 'NONE',  ( 1.000000000000000000, 0.0000000000000000000, -3.491130995403325066E-15 ) ) ;
#173 = DIRECTION ( 'NONE',  ( 3.491481338843133355E-15, -2.449293598294706414E-16, 1.000000000000000000 ) ) ;
#174 = AXIS2_PLACEMENT_3D ( 'NONE', #25, #94, #160 ) ;
#175 = LOCAL_TIME ( 13, 42, 30.00000000000000000, #165 ) ;
#176 = APPROVAL ( #218, 'UNSPECIFIED' ) ;
#177 = CARTESIAN_POINT ( 'NONE',  ( 1.745740669421566678E-15, 0.0000000000000000000, 0.5000000000000000000 ) ) ;
#178 = CARTESIAN_POINT ( 'NONE',  ( 7.570943305532645426E-31, 0.0000000000000000000, 2.168404344971008868E-16 ) ) ;
#179 =( LENGTH_UNIT ( ) NAMED_UNIT ( * ) SI_UNIT ( .MILLI., .METRE. ) );
#180 = COORDINATED_UNIVERSAL_TIME_OFFSET ( 1, 0, .AHEAD. ) ;
#181 = PRODUCT_DEFINITION_SHAPE ( 'NONE', 'NONE',  #170 ) ;
#182 = ORIENTED_EDGE ( 'NONE', *, *, #166, .T. ) ;
#183 = EDGE_CURVE ( 'NONE', #107, #107, #26, .T. ) ;
#184 = CLOSED_SHELL ( 'NONE', ( #105, #217, #145, #28 ) ) ;
#185 = PERSON_AND_ORGANIZATION_ROLE ( 'creator' ) ;
#186 = ORIENTED_EDGE ( 'NONE', *, *, #89, .T. ) ;
#187 = PERSON ( 'UNSPECIFIED', 'UNSPECIFIED', 'UNSPECIFIED', ('UNSPECIFIED'), ('UNSPECIFIED'), ('UNSPECIFIED') ) ;
#188 = CARTESIAN_POINT ( 'NONE',  ( 2.339292497024899474E-13, -8.572527594031472993E-15, 67.00000000000000000 ) ) ;
#189 = ORIENTED_EDGE ( 'NONE', *, *, #183, .T. ) ;
#190 = CC_DESIGN_DATE_AND_TIME_ASSIGNMENT ( #81, #149, ( #170 ) ) ;
#191 = FACE_OUTER_BOUND ( 'NONE', #1, .T. ) ;
#192 = AXIS2_PLACEMENT_3D ( 'NONE', #91, #141, #74 ) ;
#193 = APPROVAL_PERSON_ORGANIZATION ( #205, #14, #201 ) ;
#194 = CARTESIAN_POINT ( 'NONE',  ( 2.339292497024899474E-13, -8.572527594031472993E-15, 67.00000000000000000 ) ) ;
#195 = DIRECTION ( 'NONE',  ( 3.491481338843133355E-15, -2.449293598294706414E-16, 1.000000000000000000 ) ) ;
#196 = MANIFOLD_SOLID_BREP ( 'Corps-Déplacer/Copier1[1]', #184 ) ;
#197 = MANIFOLD_SOLID_BREP ( 'Corps-Déplacer/Copier1[2]', #134 ) ;
#198 = DIRECTION ( 'NONE',  ( -8.551662891793917213E-31, -1.000000000000000000, -2.449293598294706414E-16 ) ) ;
#199 = AXIS2_PLACEMENT_3D ( 'NONE', #43, #56, #108 ) ;
#200 = FACE_OUTER_BOUND ( 'NONE', #115, .T. ) ;
#201 = APPROVAL_ROLE ( '' ) ;
#202 = PERSON_AND_ORGANIZATION_ROLE ( 'design_owner' ) ;
#203 = CIRCLE ( 'NONE', #163, 5.000000000000000888 ) ;
#204 = ORIENTED_EDGE ( 'NONE', *, *, #75, .T. ) ;
#205 = PERSON_AND_ORGANIZATION ( #187, #3 ) ;
#206 = PERSON_AND_ORGANIZATION ( #187, #3 ) ;
#207 = EDGE_LOOP ( 'NONE', ( #55 ) ) ;
#208 = SHAPE_DEFINITION_REPRESENTATION ( #181, #70 ) ;
#209 = CC_DESIGN_PERSON_AND_ORGANIZATION_ASSIGNMENT ( #216, #202, ( #156 ) ) ;
#210 = CARTESIAN_POINT ( 'NONE',  ( 2.304377683636468267E-13, -8.327598234202001119E-15, 66.00000000000000000 ) ) ;
#211 = FACE_OUTER_BOUND ( 'NONE', #20, .T. ) ;
#212 = TOROIDAL_SURFACE ( 'NONE', #36, 4.500000000000000000, 0.4999999999999996669 ) ;
#213 = FACE_OUTER_BOUND ( 'NONE', #64, .T. ) ;
#214 = DIRECTION ( 'NONE',  ( -3.887119496269961534E-31, 1.000000000000000000, -1.113315271952138988E-16 ) ) ;
#215 = DIRECTION ( 'NONE',  ( 1.000000000000000000, 0.0000000000000000000, -3.491481338843133355E-15 ) ) ;
#216 = PERSON_AND_ORGANIZATION ( #187, #3 ) ;
#217 = ADVANCED_FACE ( 'NONE', ( #200, #7 ), #121, .T. ) ;
#218 = APPROVAL_STATUS ( 'not_yet_approved' ) ;
#219 = PERSON_AND_ORGANIZATION ( #187, #3 ) ;
#220 = AXIS2_PLACEMENT_3D ( 'NONE', #194, #173, #90 ) ;
#221 = SECURITY_CLASSIFICATION_LEVEL ( 'unclassified' ) ;
#222 = CC_DESIGN_DATE_AND_TIME_ASSIGNMENT ( #164, #15, ( #88 ) ) ;
#223 = CALENDAR_DATE ( 2021, 9, 12 ) ;
ENDSEC;
END-ISO-10303-21;
