ISO-10303-21;
HEADER;
FILE_DESCRIPTION (( 'STEP AP203' ),
    '1' );
FILE_NAME ('392835.step',
    '2021-12-09T12:42:30',
    ( '' ),
    ( '' ),
    'SwSTEP 2.0',
    'SolidWorks 2019',
    '' );
FILE_SCHEMA (( 'CONFIG_CONTROL_DESIGN' ));
ENDSEC;

DATA;
#1 = EDGE_CURVE ( 'NONE', #216, #216, #106, .T. ) ;
#2 = FACE_OUTER_BOUND ( 'NONE', #17, .T. ) ;
#3 = CARTESIAN_POINT ( 'NONE',  ( 2.206616206148860281E-13, -8.743978145912103147E-15, 63.20000000000000284 ) ) ;
#4 = ORIENTED_EDGE ( 'NONE', *, *, #1, .T. ) ;
#5 = ORIENTED_EDGE ( 'NONE', *, *, #16, .T. ) ;
#6 = AXIS2_PLACEMENT_3D ( 'NONE', #38, #156, #37 ) ;
#7 = DATE_AND_TIME ( #211, #85 ) ;
#8 = PRODUCT_RELATED_PRODUCT_CATEGORY ( 'detail', '', ( #179 ) ) ;
#9 = PERSON_AND_ORGANIZATION_ROLE ( 'creator' ) ;
#10 = EDGE_LOOP ( 'NONE', ( #5 ) ) ;
#11 = DIRECTION ( 'NONE',  ( 3.491481338843133355E-15, -2.449293598294705921E-16, 1.000000000000000000 ) ) ;
#12 = CARTESIAN_POINT ( 'NONE',  ( 4.000000000000007105, 0.0000000000000000000, 1.999999999999986677 ) ) ;
#13 = DATE_AND_TIME ( #182, #166 ) ;
#14 = DIRECTION ( 'NONE',  ( 3.491481338843133355E-15, 1.292682732433316192E-16, 1.000000000000000000 ) ) ;
#15 = AXIS2_PLACEMENT_3D ( 'NONE', #89, #107, #68 ) ;
#16 = EDGE_CURVE ( 'NONE', #148, #148, #205, .T. ) ;
#17 = EDGE_LOOP ( 'NONE', ( #80 ) ) ;
#18 = CYLINDRICAL_SURFACE ( 'NONE', #169, 3.999999999999991562 ) ;
#19 = CARTESIAN_POINT ( 'NONE',  ( 2.234548056859605347E-13, -8.939921633775678437E-15, 64.00000000000000000 ) ) ;
#20 = ORGANIZATION ( 'UNSPECIFIED', 'UNSPECIFIED', '' ) ;
#21 = AXIS2_PLACEMENT_3D ( 'NONE', #31, #84, #199 ) ;
#22 = EDGE_CURVE ( 'NONE', #48, #48, #98, .T. ) ;
#23 = CYLINDRICAL_SURFACE ( 'NONE', #215, 3.999999999999996447 ) ;
#24 = FACE_OUTER_BOUND ( 'NONE', #26, .T. ) ;
#25 = DIRECTION ( 'NONE',  ( -4.513377637335675026E-31, 1.000000000000000000, -1.292682732433316192E-16 ) ) ;
#26 = EDGE_LOOP ( 'NONE', ( #141 ) ) ;
#27 = PERSON_AND_ORGANIZATION ( #39, #20 ) ;
#28 = ORIENTED_EDGE ( 'NONE', *, *, #22, .F. ) ;
#29 = CARTESIAN_POINT ( 'NONE',  ( 2.000000000000000444, 0.0000000000000000000, -6.982962677686268288E-15 ) ) ;
#30 = CARTESIAN_POINT ( 'NONE',  ( 6.284666409917640040E-14, -3.999999999999988010, 18.00000000000000000 ) ) ;
#31 = CARTESIAN_POINT ( 'NONE',  ( 0.0000000000000000000, 0.0000000000000000000, 0.0000000000000000000 ) ) ;
#32 = APPROVAL_ROLE ( '' ) ;
#33 = FACE_OUTER_BOUND ( 'NONE', #165, .T. ) ;
#34 = ADVANCED_FACE ( 'NONE', ( #33 ), #136, .F. ) ;
#35 = COORDINATED_UNIVERSAL_TIME_OFFSET ( 1, 0, .AHEAD. ) ;
#36 = APPROVAL_DATE_TIME ( #13, #81 ) ;
#37 = DIRECTION ( 'NONE',  ( 0.0000000000000000000, -1.000000000000000000, 0.0000000000000000000 ) ) ;
#38 = CARTESIAN_POINT ( 'NONE',  ( 6.284666409917641302E-14, 2.326828918379968998E-15, 18.00000000000000355 ) ) ;
#39 = PERSON ( 'UNSPECIFIED', 'UNSPECIFIED', 'UNSPECIFIED', ('UNSPECIFIED'), ('UNSPECIFIED'), ('UNSPECIFIED') ) ;
#40 = FACE_OUTER_BOUND ( 'NONE', #206, .T. ) ;
#41 = APPLICATION_PROTOCOL_DEFINITION ( 'international standard', 'config_control_design', 1994, #110 ) ;
#42 = CC_DESIGN_APPROVAL ( #81, ( #116 ) ) ;
#43 = CARTESIAN_POINT ( 'NONE',  ( 0.0000000000000000000, 0.0000000000000000000, 0.0000000000000000000 ) ) ;
#44 = ORIENTED_EDGE ( 'NONE', *, *, #123, .F. ) ;
#45 = AXIS2_PLACEMENT_3D ( 'NONE', #102, #77, #25 ) ;
#46 =( LENGTH_UNIT ( ) NAMED_UNIT ( * ) SI_UNIT ( .MILLI., .METRE. ) );
#47 = CC_DESIGN_APPROVAL ( #126, ( #186 ) ) ;
#48 = VERTEX_POINT ( 'NONE', #29 ) ;
#49 = APPROVAL_STATUS ( 'not_yet_approved' ) ;
#50 = CC_DESIGN_PERSON_AND_ORGANIZATION_ASSIGNMENT ( #219, #202, ( #116 ) ) ;
#51 = COORDINATED_UNIVERSAL_TIME_OFFSET ( 1, 0, .AHEAD. ) ;
#52 = PERSON_AND_ORGANIZATION ( #39, #20 ) ;
#53 = CIRCLE ( 'NONE', #159, 3.200000000000001954 ) ;
#54 = CARTESIAN_POINT ( 'NONE',  ( 6.982962677686268288E-15, 0.0000000000000000000, 2.000000000000000444 ) ) ;
#55 = FACE_OUTER_BOUND ( 'NONE', #190, .T. ) ;
#56 = CC_DESIGN_PERSON_AND_ORGANIZATION_ASSIGNMENT ( #117, #193, ( #179 ) ) ;
#57 = DIRECTION ( 'NONE',  ( 8.551662891793915461E-31, 1.000000000000000000, 2.449293598294705921E-16 ) ) ;
#58 = DIRECTION ( 'NONE',  ( 0.0000000000000000000, -1.000000000000000000, 0.0000000000000000000 ) ) ;
#59 = CARTESIAN_POINT ( 'NONE',  ( 2.234548056859605347E-13, -3.200000000000010836, 64.00000000000000000 ) ) ;
#60 = COORDINATED_UNIVERSAL_TIME_OFFSET ( 1, 0, .AHEAD. ) ;
#61 = ORIENTED_EDGE ( 'NONE', *, *, #155, .F. ) ;
#62 = PLANE ( 'NONE',  #71 ) ;
#63 = APPROVAL_PERSON_ORGANIZATION ( #27, #138, #131 ) ;
#64 = SHAPE_DEFINITION_REPRESENTATION ( #209, #128 ) ;
#65 = DIRECTION ( 'NONE',  ( 0.0000000000000000000, -1.000000000000000000, 0.0000000000000000000 ) ) ;
#66 = AXIS2_PLACEMENT_3D ( 'NONE', #167, #11, #65 ) ;
#67 = ADVANCED_FACE ( 'NONE', ( #2, #72 ), #23, .T. ) ;
#68 = DIRECTION ( 'NONE',  ( 4.513377637335675026E-31, -1.000000000000000000, 1.292682732433316192E-16 ) ) ;
#69 = ADVANCED_FACE ( 'NONE', ( #24 ), #187, .F. ) ;
#70 = DIRECTION ( 'NONE',  ( 0.0000000000000000000, 1.000000000000000000, 0.0000000000000000000 ) ) ;
#71 = AXIS2_PLACEMENT_3D ( 'NONE', #168, #143, #214 ) ;
#72 = FACE_OUTER_BOUND ( 'NONE', #147, .T. ) ;
#73 = DIRECTION ( 'NONE',  ( -3.491481338843133355E-15, 2.449293598294705921E-16, -1.000000000000000000 ) ) ;
#74 = FACE_OUTER_BOUND ( 'NONE', #99, .T. ) ;
#75 = ORIENTED_EDGE ( 'NONE', *, *, #123, .T. ) ;
#76 = DIRECTION ( 'NONE',  ( 3.491481338843133355E-15, -0.0000000000000000000, 1.000000000000000000 ) ) ;
#77 = DIRECTION ( 'NONE',  ( -3.491481338843133355E-15, -1.292682732433316192E-16, -1.000000000000000000 ) ) ;
#78 = APPROVAL_DATE_TIME ( #7, #138 ) ;
#79 = DATE_AND_TIME ( #112, #196 ) ;
#80 = ORIENTED_EDGE ( 'NONE', *, *, #1, .F. ) ;
#81 = APPROVAL ( #88, 'UNSPECIFIED' ) ;
#82 = DIRECTION ( 'NONE',  ( 3.491481338843133355E-15, -0.0000000000000000000, 1.000000000000000000 ) ) ;
#83 = APPROVAL_DATE_TIME ( #118, #126 ) ;
#84 = DIRECTION ( 'NONE',  ( 3.491481338843133355E-15, -0.0000000000000000000, 1.000000000000000000 ) ) ;
#85 = LOCAL_TIME ( 13, 42, 30.00000000000000000, #97 ) ;
#86 = CALENDAR_DATE ( 2021, 9, 12 ) ;
#87 = CLOSED_SHELL ( 'NONE', ( #171, #201, #173, #34 ) ) ;
#88 = APPROVAL_STATUS ( 'not_yet_approved' ) ;
#89 = CARTESIAN_POINT ( 'NONE',  ( -9.026755274671334287E-31, 3.999999999999993339, -2.585365464866627947E-16 ) ) ;
#90 = FACE_OUTER_BOUND ( 'NONE', #129, .T. ) ;
#91 = MANIFOLD_SOLID_BREP ( 'Corps-Déplacer/Copier1[2]', #87 ) ;
#92 = AXIS2_PLACEMENT_3D ( 'NONE', #160, #76, #142 ) ;
#93 = DIRECTION ( 'NONE',  ( -3.491481338843133355E-15, 2.449293598294705921E-16, -1.000000000000000000 ) ) ;
#94 = FACE_BOUND ( 'NONE', #108, .T. ) ;
#95 = FACE_OUTER_BOUND ( 'NONE', #113, .T. ) ;
#96 = ORIENTED_EDGE ( 'NONE', *, *, #111, .T. ) ;
#97 = COORDINATED_UNIVERSAL_TIME_OFFSET ( 1, 0, .AHEAD. ) ;
#98 = CIRCLE ( 'NONE', #21, 2.000000000000000444 ) ;
#99 = EDGE_LOOP ( 'NONE', ( #44 ) ) ;
#100 = ADVANCED_FACE ( 'NONE', ( #94, #40 ), #223, .T. ) ;
#101 = VERTEX_POINT ( 'NONE', #149 ) ;
#102 = CARTESIAN_POINT ( 'NONE',  ( 6.284666409917641302E-14, 2.326828918379969393E-15, 18.00000000000000355 ) ) ;
#103 =( GEOMETRIC_REPRESENTATION_CONTEXT ( 3 ) GLOBAL_UNCERTAINTY_ASSIGNED_CONTEXT ( ( #154 ) ) GLOBAL_UNIT_ASSIGNED_CONTEXT ( ( #46, #163, #195 ) ) REPRESENTATION_CONTEXT ( 'NONE', 'WORKASPACE' ) );
#104 = COORDINATED_UNIVERSAL_TIME_OFFSET ( 1, 0, .AHEAD. ) ;
#105 = DIRECTION ( 'NONE',  ( 0.0000000000000000000, -1.000000000000000000, 0.0000000000000000000 ) ) ;
#106 = CIRCLE ( 'NONE', #66, 4.000000000000001776 ) ;
#107 = DIRECTION ( 'NONE',  ( 3.491481338843133355E-15, 1.292682732433316192E-16, 1.000000000000000000 ) ) ;
#108 = EDGE_LOOP ( 'NONE', ( #61 ) ) ;
#109 = TOROIDAL_SURFACE ( 'NONE', #175, 2.000000000000000000, 2.000000000000000000 ) ;
#110 = APPLICATION_CONTEXT ( 'configuration controlled 3d designs of mechanical parts and assemblies' ) ;
#111 = EDGE_CURVE ( 'NONE', #101, #101, #177, .T. ) ;
#112 = CALENDAR_DATE ( 2021, 9, 12 ) ;
#113 = EDGE_LOOP ( 'NONE', ( #151 ) ) ;
#114 = ORIENTED_EDGE ( 'NONE', *, *, #16, .F. ) ;
#115 = CARTESIAN_POINT ( 'NONE',  ( 2.206616206148860281E-13, -4.000000000000010658, 63.20000000000000284 ) ) ;
#116 = PRODUCT_DEFINITION_FORMATION_WITH_SPECIFIED_SOURCE ( 'ANY', '', #179, .NOT_KNOWN. ) ;
#117 = PERSON_AND_ORGANIZATION ( #39, #20 ) ;
#118 = DATE_AND_TIME ( #198, #145 ) ;
#119 = CC_DESIGN_PERSON_AND_ORGANIZATION_ASSIGNMENT ( #52, #120, ( #116 ) ) ;
#120 = PERSON_AND_ORGANIZATION_ROLE ( 'creator' ) ;
#121 = DIRECTION ( 'NONE',  ( 3.491481338843133355E-15, -2.449293598294705921E-16, 1.000000000000000000 ) ) ;
#122 = CARTESIAN_POINT ( 'NONE',  ( 2.234548056859605347E-13, -8.939921633775678437E-15, 64.00000000000000000 ) ) ;
#123 = EDGE_CURVE ( 'NONE', #161, #161, #133, .T. ) ;
#124 = APPLICATION_CONTEXT ( 'configuration controlled 3d designs of mechanical parts and assemblies' ) ;
#125 = VERTEX_POINT ( 'NONE', #59 ) ;
#126 = APPROVAL ( #49, 'UNSPECIFIED' ) ;
#127 = PERSON_AND_ORGANIZATION ( #39, #20 ) ;
#128 = ADVANCED_BREP_SHAPE_REPRESENTATION ( '392835', ( #164, #91, #212 ), #103 ) ;
#129 = EDGE_LOOP ( 'NONE', ( #75 ) ) ;
#130 = MECHANICAL_CONTEXT ( 'NONE', #124, 'mechanical' ) ;
#131 = APPROVAL_ROLE ( '' ) ;
#132 = DATE_AND_TIME ( #86, #152 ) ;
#133 = CIRCLE ( 'NONE', #92, 4.000000000000000000 ) ;
#134 = APPROVAL_ROLE ( '' ) ;
#135 = PERSON_AND_ORGANIZATION ( #39, #20 ) ;
#136 = PLANE ( 'NONE',  #15 ) ;
#137 = FACE_OUTER_BOUND ( 'NONE', #10, .T. ) ;
#138 = APPROVAL ( #181, 'UNSPECIFIED' ) ;
#139 = CC_DESIGN_DATE_AND_TIME_ASSIGNMENT ( #132, #200, ( #186 ) ) ;
#140 = DIRECTION ( 'NONE',  ( 0.0000000000000000000, -1.000000000000000000, 0.0000000000000000000 ) ) ;
#141 = ORIENTED_EDGE ( 'NONE', *, *, #155, .T. ) ;
#142 = DIRECTION ( 'NONE',  ( 1.000000000000000000, 0.0000000000000000000, -3.469446951953614189E-15 ) ) ;
#143 = DIRECTION ( 'NONE',  ( 3.491481338843133355E-15, -2.449293598294705921E-16, 1.000000000000000000 ) ) ;
#144 = PERSON_AND_ORGANIZATION ( #39, #20 ) ;
#145 = LOCAL_TIME ( 13, 42, 30.00000000000000000, #104 ) ;
#146 = DATE_TIME_ROLE ( 'creation_date' ) ;
#147 = EDGE_LOOP ( 'NONE', ( #96 ) ) ;
#148 = VERTEX_POINT ( 'NONE', #30 ) ;
#149 = CARTESIAN_POINT ( 'NONE',  ( 6.284666409917641302E-14, -3.999999999999988010, 18.00000000000000355 ) ) ;
#150 = CC_DESIGN_DATE_AND_TIME_ASSIGNMENT ( #79, #146, ( #183 ) ) ;
#151 = ORIENTED_EDGE ( 'NONE', *, *, #111, .F. ) ;
#152 = LOCAL_TIME ( 13, 42, 30.00000000000000000, #51 ) ;
#153 = SECURITY_CLASSIFICATION_LEVEL ( 'unclassified' ) ;
#154 = UNCERTAINTY_MEASURE_WITH_UNIT (LENGTH_MEASURE( 1.000000000000000082E-05 ), #46, 'distance_accuracy_value', 'NONE');
#155 = EDGE_CURVE ( 'NONE', #125, #125, #53, .T. ) ;
#156 = DIRECTION ( 'NONE',  ( 3.491481338843133355E-15, -2.449293598294705921E-16, 1.000000000000000000 ) ) ;
#157 = CARTESIAN_POINT ( 'NONE',  ( 6.284666409917641302E-14, 2.326828918379969393E-15, 18.00000000000000355 ) ) ;
#158 = CC_DESIGN_PERSON_AND_ORGANIZATION_ASSIGNMENT ( #144, #9, ( #183 ) ) ;
#159 = AXIS2_PLACEMENT_3D ( 'NONE', #19, #208, #105 ) ;
#160 = CARTESIAN_POINT ( 'NONE',  ( 6.982962677686268288E-15, 0.0000000000000000000, 2.000000000000000444 ) ) ;
#161 = VERTEX_POINT ( 'NONE', #12 ) ;
#162 = CLOSED_SHELL ( 'NONE', ( #213, #67, #100, #69 ) ) ;
#163 =( NAMED_UNIT ( * ) PLANE_ANGLE_UNIT ( ) SI_UNIT ( $, .RADIAN. ) );
#164 = MANIFOLD_SOLID_BREP ( 'Corps-Déplacer/Copier1[1]', #162 ) ;
#165 = EDGE_LOOP ( 'NONE', ( #28 ) ) ;
#166 = LOCAL_TIME ( 13, 42, 30.00000000000000000, #35 ) ;
#167 = CARTESIAN_POINT ( 'NONE',  ( 2.206616206148860281E-13, -8.743978145912103147E-15, 63.20000000000000284 ) ) ;
#168 = CARTESIAN_POINT ( 'NONE',  ( 6.284666409917641302E-14, 2.326828918379969393E-15, 18.00000000000000355 ) ) ;
#169 = AXIS2_PLACEMENT_3D ( 'NONE', #157, #222, #140 ) ;
#170 = PERSON_AND_ORGANIZATION_ROLE ( 'classification_officer' ) ;
#171 = ADVANCED_FACE ( 'NONE', ( #172, #90 ), #18, .T. ) ;
#172 = FACE_OUTER_BOUND ( 'NONE', #191, .T. ) ;
#173 = ADVANCED_FACE ( 'NONE', ( #55, #74 ), #109, .T. ) ;
#174 = APPROVAL_PERSON_ORGANIZATION ( #221, #126, #32 ) ;
#175 = AXIS2_PLACEMENT_3D ( 'NONE', #54, #82, #217 ) ;
#176 = CC_DESIGN_PERSON_AND_ORGANIZATION_ASSIGNMENT ( #135, #170, ( #186 ) ) ;
#177 = CIRCLE ( 'NONE', #6, 3.999999999999990674 ) ;
#178 = ORIENTED_EDGE ( 'NONE', *, *, #22, .T. ) ;
#179 = PRODUCT ( '392835', '392835', '', ( #130 ) ) ;
#180 = CC_DESIGN_APPROVAL ( #138, ( #183 ) ) ;
#181 = APPROVAL_STATUS ( 'not_yet_approved' ) ;
#182 = CALENDAR_DATE ( 2021, 9, 12 ) ;
#183 = PRODUCT_DEFINITION ( 'UNKNOWN', '', #116, #203 ) ;
#184 = APPROVAL_PERSON_ORGANIZATION ( #127, #81, #134 ) ;
#185 = DIRECTION ( 'NONE',  ( 0.0000000000000000000, -1.000000000000000000, 0.0000000000000000000 ) ) ;
#186 = SECURITY_CLASSIFICATION ( '', '', #153 ) ;
#187 = PLANE ( 'NONE',  #189 ) ;
#188 = AXIS2_PLACEMENT_3D ( 'NONE', #218, #14, #185 ) ;
#189 = AXIS2_PLACEMENT_3D ( 'NONE', #207, #93, #57 ) ;
#190 = EDGE_LOOP ( 'NONE', ( #178 ) ) ;
#191 = EDGE_LOOP ( 'NONE', ( #114 ) ) ;
#192 = APPLICATION_PROTOCOL_DEFINITION ( 'international standard', 'config_control_design', 1994, #124 ) ;
#193 = PERSON_AND_ORGANIZATION_ROLE ( 'design_owner' ) ;
#194 = PLANE ( 'NONE',  #45 ) ;
#195 =( NAMED_UNIT ( * ) SI_UNIT ( $, .STERADIAN. ) SOLID_ANGLE_UNIT ( ) );
#196 = LOCAL_TIME ( 13, 42, 30.00000000000000000, #60 ) ;
#197 = DIRECTION ( 'NONE',  ( 1.000000000000000000, 0.0000000000000000000, 0.0000000000000000000 ) ) ;
#198 = CALENDAR_DATE ( 2021, 9, 12 ) ;
#199 = DIRECTION ( 'NONE',  ( 1.000000000000000000, 0.0000000000000000000, -3.491481338843133355E-15 ) ) ;
#200 = DATE_TIME_ROLE ( 'classification_date' ) ;
#201 = ADVANCED_FACE ( 'NONE', ( #137 ), #194, .F. ) ;
#202 = PERSON_AND_ORGANIZATION_ROLE ( 'design_supplier' ) ;
#203 = DESIGN_CONTEXT ( 'detailed design', #110, 'design' ) ;
#204 = CC_DESIGN_SECURITY_CLASSIFICATION ( #186, ( #116 ) ) ;
#205 = CIRCLE ( 'NONE', #188, 3.999999999999990674 ) ;
#206 = EDGE_LOOP ( 'NONE', ( #4 ) ) ;
#207 = CARTESIAN_POINT ( 'NONE',  ( 2.234548056859605347E-13, -8.939921633775678437E-15, 64.00000000000000000 ) ) ;
#208 = DIRECTION ( 'NONE',  ( 3.491481338843133355E-15, -2.449293598294705921E-16, 1.000000000000000000 ) ) ;
#209 = PRODUCT_DEFINITION_SHAPE ( 'NONE', 'NONE',  #183 ) ;
#210 = DIRECTION ( 'NONE',  ( 0.0000000000000000000, 0.0000000000000000000, 1.000000000000000000 ) ) ;
#211 = CALENDAR_DATE ( 2021, 9, 12 ) ;
#212 = AXIS2_PLACEMENT_3D ( 'NONE', #43, #210, #197 ) ;
#213 = ADVANCED_FACE ( 'NONE', ( #95 ), #62, .F. ) ;
#214 = DIRECTION ( 'NONE',  ( -8.551662891793915461E-31, -1.000000000000000000, -2.449293598294705921E-16 ) ) ;
#215 = AXIS2_PLACEMENT_3D ( 'NONE', #122, #121, #58 ) ;
#216 = VERTEX_POINT ( 'NONE', #115 ) ;
#217 = DIRECTION ( 'NONE',  ( 1.000000000000000000, 0.0000000000000000000, -3.491481338843133355E-15 ) ) ;
#218 = CARTESIAN_POINT ( 'NONE',  ( 6.284666409917640040E-14, 2.326828918379968998E-15, 18.00000000000000000 ) ) ;
#219 = PERSON_AND_ORGANIZATION ( #39, #20 ) ;
#220 = AXIS2_PLACEMENT_3D ( 'NONE', #3, #73, #70 ) ;
#221 = PERSON_AND_ORGANIZATION ( #39, #20 ) ;
#222 = DIRECTION ( 'NONE',  ( 3.491481338843133355E-15, 1.292682732433316192E-16, 1.000000000000000000 ) ) ;
#223 = CONICAL_SURFACE ( 'NONE', #220, 4.000000000000001776, 0.7853981633974512766 ) ;
ENDSEC;
END-ISO-10303-21;
