ISO-10303-21;
HEADER;
FILE_DESCRIPTION (( 'STEP AP203' ),
    '1' );
FILE_NAME ('392834.step',
    '2021-12-09T12:42:29',
    ( '' ),
    ( '' ),
    'SwSTEP 2.0',
    'SolidWorks 2019',
    '' );
FILE_SCHEMA (( 'CONFIG_CONTROL_DESIGN' ));
ENDSEC;

DATA;
#1 = TOROIDAL_SURFACE ( 'NONE', #67, 2.500000000000000000, 1.500000000000000000 ) ;
#2 = PERSON_AND_ORGANIZATION ( #36, #19 ) ;
#3 = EDGE_CURVE ( 'NONE', #124, #124, #113, .T. ) ;
#4 = APPROVAL_PERSON_ORGANIZATION ( #203, #107, #188 ) ;
#5 = ORIENTED_EDGE ( 'NONE', *, *, #21, .F. ) ;
#6 = CC_DESIGN_PERSON_AND_ORGANIZATION_ASSIGNMENT ( #136, #98, ( #208 ) ) ;
#7 = CARTESIAN_POINT ( 'NONE',  ( 6.284666409917641302E-14, 2.326828918379969393E-15, 18.00000000000000355 ) ) ;
#8 = FACE_OUTER_BOUND ( 'NONE', #89, .T. ) ;
#9 =( NAMED_UNIT ( * ) PLANE_ANGLE_UNIT ( ) SI_UNIT ( $, .RADIAN. ) );
#10 = FACE_BOUND ( 'NONE', #164, .T. ) ;
#11 = PRODUCT ( '392834', '392834', '', ( #93 ) ) ;
#12 = CARTESIAN_POINT ( 'NONE',  ( -9.026755274671334287E-31, 3.999999999999993339, -2.585365464866627947E-16 ) ) ;
#13 = CIRCLE ( 'NONE', #157, 3.999999999999990674 ) ;
#14 = APPROVAL_DATE_TIME ( #49, #125 ) ;
#15 = EDGE_CURVE ( 'NONE', #22, #22, #13, .T. ) ;
#16 = DATE_TIME_ROLE ( 'classification_date' ) ;
#17 =( GEOMETRIC_REPRESENTATION_CONTEXT ( 3 ) GLOBAL_UNCERTAINTY_ASSIGNED_CONTEXT ( ( #69 ) ) GLOBAL_UNIT_ASSIGNED_CONTEXT ( ( #57, #9, #167 ) ) REPRESENTATION_CONTEXT ( 'NONE', 'WORKASPACE' ) );
#18 = CARTESIAN_POINT ( 'NONE',  ( 6.284666409917641302E-14, 2.326828918379969393E-15, 18.00000000000000355 ) ) ;
#19 = ORGANIZATION ( 'UNSPECIFIED', 'UNSPECIFIED', '' ) ;
#20 = DIRECTION ( 'NONE',  ( 3.491481338843133355E-15, 1.292682732433316192E-16, 1.000000000000000000 ) ) ;
#21 = EDGE_CURVE ( 'NONE', #219, #219, #55, .T. ) ;
#22 = VERTEX_POINT ( 'NONE', #112 ) ;
#23 = ORIENTED_EDGE ( 'NONE', *, *, #47, .T. ) ;
#24 = DIRECTION ( 'NONE',  ( 3.491481338843133355E-15, 1.292682732433316192E-16, 1.000000000000000000 ) ) ;
#25 = EDGE_LOOP ( 'NONE', ( #193 ) ) ;
#26 = CARTESIAN_POINT ( 'NONE',  ( 2.234548056859605347E-13, -3.200000000000010836, 64.00000000000000000 ) ) ;
#27 = AXIS2_PLACEMENT_3D ( 'NONE', #149, #194, #45 ) ;
#28 = SECURITY_CLASSIFICATION_LEVEL ( 'unclassified' ) ;
#29 = PERSON_AND_ORGANIZATION ( #36, #19 ) ;
#30 = CIRCLE ( 'NONE', #70, 4.000000000000000000 ) ;
#31 = DIRECTION ( 'NONE',  ( 1.000000000000000000, 0.0000000000000000000, -3.491481338843133355E-15 ) ) ;
#32 = DATE_TIME_ROLE ( 'creation_date' ) ;
#33 = DATE_AND_TIME ( #152, #154 ) ;
#34 = APPROVAL_DATE_TIME ( #182, #135 ) ;
#35 = AXIS2_PLACEMENT_3D ( 'NONE', #110, #41, #90 ) ;
#36 = PERSON ( 'UNSPECIFIED', 'UNSPECIFIED', 'UNSPECIFIED', ('UNSPECIFIED'), ('UNSPECIFIED'), ('UNSPECIFIED') ) ;
#37 = CYLINDRICAL_SURFACE ( 'NONE', #64, 3.999999999999991562 ) ;
#38 = DIRECTION ( 'NONE',  ( 0.0000000000000000000, -1.000000000000000000, 0.0000000000000000000 ) ) ;
#39 = CC_DESIGN_PERSON_AND_ORGANIZATION_ASSIGNMENT ( #2, #186, ( #76 ) ) ;
#40 = PLANE ( 'NONE',  #187 ) ;
#41 = DIRECTION ( 'NONE',  ( 3.491481338843133355E-15, -2.449293598294705921E-16, 1.000000000000000000 ) ) ;
#42 = EDGE_LOOP ( 'NONE', ( #71 ) ) ;
#43 = FACE_OUTER_BOUND ( 'NONE', #75, .T. ) ;
#44 = FACE_OUTER_BOUND ( 'NONE', #42, .T. ) ;
#45 = DIRECTION ( 'NONE',  ( 0.0000000000000000000, 1.000000000000000000, 0.0000000000000000000 ) ) ;
#46 = COORDINATED_UNIVERSAL_TIME_OFFSET ( 1, 0, .AHEAD. ) ;
#47 = EDGE_CURVE ( 'NONE', #180, #180, #184, .T. ) ;
#48 = ADVANCED_BREP_SHAPE_REPRESENTATION ( '392834', ( #132, #52, #221 ), #17 ) ;
#49 = DATE_AND_TIME ( #150, #60 ) ;
#50 = APPROVAL_DATE_TIME ( #33, #107 ) ;
#51 = ADVANCED_FACE ( 'NONE', ( #101 ), #103, .F. ) ;
#52 = MANIFOLD_SOLID_BREP ( 'Corps-Déplacer/Copier1[2]', #127 ) ;
#53 = DIRECTION ( 'NONE',  ( 1.000000000000000000, 0.0000000000000000000, -3.469446951953614189E-15 ) ) ;
#54 = DIRECTION ( 'NONE',  ( 3.491481338843133355E-15, -0.0000000000000000000, 1.000000000000000000 ) ) ;
#55 = CIRCLE ( 'NONE', #139, 3.999999999999990674 ) ;
#56 = EDGE_LOOP ( 'NONE', ( #92 ) ) ;
#57 =( LENGTH_UNIT ( ) NAMED_UNIT ( * ) SI_UNIT ( .MILLI., .METRE. ) );
#58 = CYLINDRICAL_SURFACE ( 'NONE', #35, 3.999999999999996447 ) ;
#59 = ADVANCED_FACE ( 'NONE', ( #190, #209 ), #37, .T. ) ;
#60 = LOCAL_TIME ( 13, 42, 29.00000000000000000, #155 ) ;
#61 = APPROVAL_STATUS ( 'not_yet_approved' ) ;
#62 = CALENDAR_DATE ( 2021, 9, 12 ) ;
#63 = APPROVAL_ROLE ( '' ) ;
#64 = AXIS2_PLACEMENT_3D ( 'NONE', #102, #20, #84 ) ;
#65 = CC_DESIGN_APPROVAL ( #107, ( #208 ) ) ;
#66 = COORDINATED_UNIVERSAL_TIME_OFFSET ( 1, 0, .AHEAD. ) ;
#67 = AXIS2_PLACEMENT_3D ( 'NONE', #148, #54, #177 ) ;
#68 = LOCAL_TIME ( 13, 42, 29.00000000000000000, #223 ) ;
#69 = UNCERTAINTY_MEASURE_WITH_UNIT (LENGTH_MEASURE( 1.000000000000000082E-05 ), #57, 'distance_accuracy_value', 'NONE');
#70 = AXIS2_PLACEMENT_3D ( 'NONE', #73, #130, #53 ) ;
#71 = ORIENTED_EDGE ( 'NONE', *, *, #3, .F. ) ;
#72 = CARTESIAN_POINT ( 'NONE',  ( 4.000000000000005329, 0.0000000000000000000, 1.499999999999986233 ) ) ;
#73 = CARTESIAN_POINT ( 'NONE',  ( 5.237222008264700033E-15, 0.0000000000000000000, 1.500000000000000000 ) ) ;
#74 = FACE_OUTER_BOUND ( 'NONE', #109, .T. ) ;
#75 = EDGE_LOOP ( 'NONE', ( #162 ) ) ;
#76 = PRODUCT_DEFINITION ( 'UNKNOWN', '', #211, #210 ) ;
#77 = APPLICATION_PROTOCOL_DEFINITION ( 'international standard', 'config_control_design', 1994, #111 ) ;
#78 = PERSON_AND_ORGANIZATION ( #36, #19 ) ;
#79 = PERSON_AND_ORGANIZATION ( #36, #19 ) ;
#80 = PERSON_AND_ORGANIZATION ( #36, #19 ) ;
#81 = APPROVAL_PERSON_ORGANIZATION ( #97, #135, #172 ) ;
#82 = CC_DESIGN_PERSON_AND_ORGANIZATION_ASSIGNMENT ( #80, #117, ( #211 ) ) ;
#83 = DIRECTION ( 'NONE',  ( 3.491481338843133355E-15, -2.449293598294705921E-16, 1.000000000000000000 ) ) ;
#84 = DIRECTION ( 'NONE',  ( 0.0000000000000000000, -1.000000000000000000, 0.0000000000000000000 ) ) ;
#85 = CC_DESIGN_APPROVAL ( #125, ( #211 ) ) ;
#86 = CARTESIAN_POINT ( 'NONE',  ( 6.284666409917640040E-14, -3.999999999999988010, 18.00000000000000000 ) ) ;
#87 = ORIENTED_EDGE ( 'NONE', *, *, #206, .F. ) ;
#88 = ADVANCED_FACE ( 'NONE', ( #141 ), #143, .F. ) ;
#89 = EDGE_LOOP ( 'NONE', ( #87 ) ) ;
#90 = DIRECTION ( 'NONE',  ( 0.0000000000000000000, -1.000000000000000000, 0.0000000000000000000 ) ) ;
#91 = PERSON_AND_ORGANIZATION_ROLE ( 'creator' ) ;
#92 = ORIENTED_EDGE ( 'NONE', *, *, #15, .F. ) ;
#93 = MECHANICAL_CONTEXT ( 'NONE', #111, 'mechanical' ) ;
#94 = LOCAL_TIME ( 13, 42, 29.00000000000000000, #46 ) ;
#95 = CC_DESIGN_SECURITY_CLASSIFICATION ( #208, ( #211 ) ) ;
#96 = CARTESIAN_POINT ( 'NONE',  ( 6.284666409917641302E-14, 2.326828918379968998E-15, 18.00000000000000355 ) ) ;
#97 = PERSON_AND_ORGANIZATION ( #36, #19 ) ;
#98 = PERSON_AND_ORGANIZATION_ROLE ( 'classification_officer' ) ;
#99 = CC_DESIGN_DATE_AND_TIME_ASSIGNMENT ( #118, #16, ( #208 ) ) ;
#100 = APPROVAL_PERSON_ORGANIZATION ( #79, #125, #63 ) ;
#101 = FACE_OUTER_BOUND ( 'NONE', #56, .T. ) ;
#102 = CARTESIAN_POINT ( 'NONE',  ( 6.284666409917641302E-14, 2.326828918379969393E-15, 18.00000000000000355 ) ) ;
#103 = PLANE ( 'NONE',  #123 ) ;
#104 = APPLICATION_CONTEXT ( 'configuration controlled 3d designs of mechanical parts and assemblies' ) ;
#105 = CARTESIAN_POINT ( 'NONE',  ( 2.234548056859605347E-13, -8.939921633775678437E-15, 64.00000000000000000 ) ) ;
#106 = CLOSED_SHELL ( 'NONE', ( #51, #169, #120, #161 ) ) ;
#107 = APPROVAL ( #61, 'UNSPECIFIED' ) ;
#108 = FACE_OUTER_BOUND ( 'NONE', #197, .T. ) ;
#109 = EDGE_LOOP ( 'NONE', ( #199 ) ) ;
#110 = CARTESIAN_POINT ( 'NONE',  ( 2.234548056859605347E-13, -8.939921633775678437E-15, 64.00000000000000000 ) ) ;
#111 = APPLICATION_CONTEXT ( 'configuration controlled 3d designs of mechanical parts and assemblies' ) ;
#112 = CARTESIAN_POINT ( 'NONE',  ( 6.284666409917641302E-14, -3.999999999999988010, 18.00000000000000355 ) ) ;
#113 = CIRCLE ( 'NONE', #191, 2.500000000000000000 ) ;
#114 = CARTESIAN_POINT ( 'NONE',  ( 2.206616206148860281E-13, -4.000000000000010658, 63.20000000000000284 ) ) ;
#115 = DATE_AND_TIME ( #204, #196 ) ;
#116 = CARTESIAN_POINT ( 'NONE',  ( 0.0000000000000000000, 0.0000000000000000000, 0.0000000000000000000 ) ) ;
#117 = PERSON_AND_ORGANIZATION_ROLE ( 'design_supplier' ) ;
#118 = DATE_AND_TIME ( #138, #94 ) ;
#119 = APPROVAL_STATUS ( 'not_yet_approved' ) ;
#120 = ADVANCED_FACE ( 'NONE', ( #10, #108 ), #151, .T. ) ;
#121 = AXIS2_PLACEMENT_3D ( 'NONE', #128, #217, #178 ) ;
#122 = DIRECTION ( 'NONE',  ( 0.0000000000000000000, -1.000000000000000000, 0.0000000000000000000 ) ) ;
#123 = AXIS2_PLACEMENT_3D ( 'NONE', #18, #83, #160 ) ;
#124 = VERTEX_POINT ( 'NONE', #175 ) ;
#125 = APPROVAL ( #200, 'UNSPECIFIED' ) ;
#126 = EDGE_LOOP ( 'NONE', ( #134 ) ) ;
#127 = CLOSED_SHELL ( 'NONE', ( #59, #88, #153, #181 ) ) ;
#128 = CARTESIAN_POINT ( 'NONE',  ( 2.206616206148860281E-13, -8.743978145912103147E-15, 63.20000000000000284 ) ) ;
#129 = EDGE_LOOP ( 'NONE', ( #214 ) ) ;
#130 = DIRECTION ( 'NONE',  ( 3.491481338843133355E-15, -0.0000000000000000000, 1.000000000000000000 ) ) ;
#131 = PLANE ( 'NONE',  #137 ) ;
#132 = MANIFOLD_SOLID_BREP ( 'Corps-Déplacer/Copier1[1]', #106 ) ;
#133 = COORDINATED_UNIVERSAL_TIME_OFFSET ( 1, 0, .AHEAD. ) ;
#134 = ORIENTED_EDGE ( 'NONE', *, *, #195, .T. ) ;
#135 = APPROVAL ( #119, 'UNSPECIFIED' ) ;
#136 = PERSON_AND_ORGANIZATION ( #36, #19 ) ;
#137 = AXIS2_PLACEMENT_3D ( 'NONE', #105, #218, #192 ) ;
#138 = CALENDAR_DATE ( 2021, 9, 12 ) ;
#139 = AXIS2_PLACEMENT_3D ( 'NONE', #159, #207, #122 ) ;
#140 = DIRECTION ( 'NONE',  ( 3.491481338843133355E-15, -2.449293598294705921E-16, 1.000000000000000000 ) ) ;
#141 = FACE_OUTER_BOUND ( 'NONE', #25, .T. ) ;
#142 = CC_DESIGN_DATE_AND_TIME_ASSIGNMENT ( #115, #32, ( #76 ) ) ;
#143 = PLANE ( 'NONE',  #174 ) ;
#144 = VERTEX_POINT ( 'NONE', #114 ) ;
#145 = EDGE_LOOP ( 'NONE', ( #23 ) ) ;
#146 = VERTEX_POINT ( 'NONE', #72 ) ;
#147 = AXIS2_PLACEMENT_3D ( 'NONE', #205, #140, #38 ) ;
#148 = CARTESIAN_POINT ( 'NONE',  ( 5.237222008264700033E-15, 0.0000000000000000000, 1.500000000000000000 ) ) ;
#149 = CARTESIAN_POINT ( 'NONE',  ( 2.206616206148860281E-13, -8.743978145912103147E-15, 63.20000000000000284 ) ) ;
#150 = CALENDAR_DATE ( 2021, 9, 12 ) ;
#151 = CONICAL_SURFACE ( 'NONE', #27, 4.000000000000001776, 0.7853981633974512766 ) ;
#152 = CALENDAR_DATE ( 2021, 9, 12 ) ;
#153 = ADVANCED_FACE ( 'NONE', ( #165, #43 ), #1, .T. ) ;
#154 = LOCAL_TIME ( 13, 42, 29.00000000000000000, #133 ) ;
#155 = COORDINATED_UNIVERSAL_TIME_OFFSET ( 1, 0, .AHEAD. ) ;
#156 = APPLICATION_PROTOCOL_DEFINITION ( 'international standard', 'config_control_design', 1994, #104 ) ;
#157 = AXIS2_PLACEMENT_3D ( 'NONE', #96, #222, #202 ) ;
#158 = DIRECTION ( 'NONE',  ( 1.000000000000000000, 0.0000000000000000000, 0.0000000000000000000 ) ) ;
#159 = CARTESIAN_POINT ( 'NONE',  ( 6.284666409917640040E-14, 2.326828918379968998E-15, 18.00000000000000000 ) ) ;
#160 = DIRECTION ( 'NONE',  ( -8.551662891793915461E-31, -1.000000000000000000, -2.449293598294705921E-16 ) ) ;
#161 = ADVANCED_FACE ( 'NONE', ( #213 ), #131, .F. ) ;
#162 = ORIENTED_EDGE ( 'NONE', *, *, #195, .F. ) ;
#163 = DIRECTION ( 'NONE',  ( 4.513377637335675026E-31, -1.000000000000000000, 1.292682732433316192E-16 ) ) ;
#164 = EDGE_LOOP ( 'NONE', ( #216 ) ) ;
#165 = FACE_OUTER_BOUND ( 'NONE', #129, .T. ) ;
#166 = CC_DESIGN_APPROVAL ( #135, ( #76 ) ) ;
#167 =( NAMED_UNIT ( * ) SI_UNIT ( $, .STERADIAN. ) SOLID_ANGLE_UNIT ( ) );
#168 = DIRECTION ( 'NONE',  ( -3.491481338843133355E-15, -1.292682732433316192E-16, -1.000000000000000000 ) ) ;
#169 = ADVANCED_FACE ( 'NONE', ( #8, #74 ), #58, .T. ) ;
#170 = CARTESIAN_POINT ( 'NONE',  ( 0.0000000000000000000, 0.0000000000000000000, 0.0000000000000000000 ) ) ;
#171 = CIRCLE ( 'NONE', #121, 4.000000000000001776 ) ;
#172 = APPROVAL_ROLE ( '' ) ;
#173 = CC_DESIGN_PERSON_AND_ORGANIZATION_ASSIGNMENT ( #78, #91, ( #211 ) ) ;
#174 = AXIS2_PLACEMENT_3D ( 'NONE', #7, #168, #198 ) ;
#175 = CARTESIAN_POINT ( 'NONE',  ( 2.500000000000000000, 0.0000000000000000000, -8.728703347107833388E-15 ) ) ;
#176 = ORIENTED_EDGE ( 'NONE', *, *, #206, .T. ) ;
#177 = DIRECTION ( 'NONE',  ( 1.000000000000000000, 0.0000000000000000000, -3.491481338843133355E-15 ) ) ;
#178 = DIRECTION ( 'NONE',  ( 0.0000000000000000000, -1.000000000000000000, 0.0000000000000000000 ) ) ;
#179 = EDGE_LOOP ( 'NONE', ( #5 ) ) ;
#180 = VERTEX_POINT ( 'NONE', #26 ) ;
#181 = ADVANCED_FACE ( 'NONE', ( #44 ), #40, .F. ) ;
#182 = DATE_AND_TIME ( #62, #68 ) ;
#183 = DIRECTION ( 'NONE',  ( 0.0000000000000000000, 0.0000000000000000000, 1.000000000000000000 ) ) ;
#184 = CIRCLE ( 'NONE', #147, 3.200000000000001954 ) ;
#185 = DIRECTION ( 'NONE',  ( 3.491481338843133355E-15, -0.0000000000000000000, 1.000000000000000000 ) ) ;
#186 = PERSON_AND_ORGANIZATION_ROLE ( 'creator' ) ;
#187 = AXIS2_PLACEMENT_3D ( 'NONE', #12, #24, #163 ) ;
#188 = APPROVAL_ROLE ( '' ) ;
#189 = PRODUCT_RELATED_PRODUCT_CATEGORY ( 'detail', '', ( #11 ) ) ;
#190 = FACE_OUTER_BOUND ( 'NONE', #179, .T. ) ;
#191 = AXIS2_PLACEMENT_3D ( 'NONE', #116, #185, #31 ) ;
#192 = DIRECTION ( 'NONE',  ( 8.551662891793915461E-31, 1.000000000000000000, 2.449293598294705921E-16 ) ) ;
#193 = ORIENTED_EDGE ( 'NONE', *, *, #21, .T. ) ;
#194 = DIRECTION ( 'NONE',  ( -3.491481338843133355E-15, 2.449293598294705921E-16, -1.000000000000000000 ) ) ;
#195 = EDGE_CURVE ( 'NONE', #146, #146, #30, .T. ) ;
#196 = LOCAL_TIME ( 13, 42, 29.00000000000000000, #66 ) ;
#197 = EDGE_LOOP ( 'NONE', ( #176 ) ) ;
#198 = DIRECTION ( 'NONE',  ( -4.513377637335675026E-31, 1.000000000000000000, -1.292682732433316192E-16 ) ) ;
#199 = ORIENTED_EDGE ( 'NONE', *, *, #15, .T. ) ;
#200 = APPROVAL_STATUS ( 'not_yet_approved' ) ;
#201 = PERSON_AND_ORGANIZATION_ROLE ( 'design_owner' ) ;
#202 = DIRECTION ( 'NONE',  ( 0.0000000000000000000, -1.000000000000000000, 0.0000000000000000000 ) ) ;
#203 = PERSON_AND_ORGANIZATION ( #36, #19 ) ;
#204 = CALENDAR_DATE ( 2021, 9, 12 ) ;
#205 = CARTESIAN_POINT ( 'NONE',  ( 2.234548056859605347E-13, -8.939921633775678437E-15, 64.00000000000000000 ) ) ;
#206 = EDGE_CURVE ( 'NONE', #144, #144, #171, .T. ) ;
#207 = DIRECTION ( 'NONE',  ( 3.491481338843133355E-15, 1.292682732433316192E-16, 1.000000000000000000 ) ) ;
#208 = SECURITY_CLASSIFICATION ( '', '', #28 ) ;
#209 = FACE_OUTER_BOUND ( 'NONE', #126, .T. ) ;
#210 = DESIGN_CONTEXT ( 'detailed design', #104, 'design' ) ;
#211 = PRODUCT_DEFINITION_FORMATION_WITH_SPECIFIED_SOURCE ( 'ANY', '', #11, .NOT_KNOWN. ) ;
#212 = PRODUCT_DEFINITION_SHAPE ( 'NONE', 'NONE',  #76 ) ;
#213 = FACE_OUTER_BOUND ( 'NONE', #145, .T. ) ;
#214 = ORIENTED_EDGE ( 'NONE', *, *, #3, .T. ) ;
#215 = CC_DESIGN_PERSON_AND_ORGANIZATION_ASSIGNMENT ( #29, #201, ( #11 ) ) ;
#216 = ORIENTED_EDGE ( 'NONE', *, *, #47, .F. ) ;
#217 = DIRECTION ( 'NONE',  ( 3.491481338843133355E-15, -2.449293598294705921E-16, 1.000000000000000000 ) ) ;
#218 = DIRECTION ( 'NONE',  ( -3.491481338843133355E-15, 2.449293598294705921E-16, -1.000000000000000000 ) ) ;
#219 = VERTEX_POINT ( 'NONE', #86 ) ;
#220 = SHAPE_DEFINITION_REPRESENTATION ( #212, #48 ) ;
#221 = AXIS2_PLACEMENT_3D ( 'NONE', #170, #183, #158 ) ;
#222 = DIRECTION ( 'NONE',  ( 3.491481338843133355E-15, -2.449293598294705921E-16, 1.000000000000000000 ) ) ;
#223 = COORDINATED_UNIVERSAL_TIME_OFFSET ( 1, 0, .AHEAD. ) ;
ENDSEC;
END-ISO-10303-21;
