ISO-10303-21;
HEADER;
FILE_DESCRIPTION (( 'STEP AP203' ),
    '1' );
FILE_NAME ('392833.step',
    '2021-12-09T12:42:29',
    ( '' ),
    ( '' ),
    'SwSTEP 2.0',
    'SolidWorks 2019',
    '' );
FILE_SCHEMA (( 'CONFIG_CONTROL_DESIGN' ));
ENDSEC;

DATA;
#1 = ADVANCED_FACE ( 'NONE', ( #111 ), #182, .F. ) ;
#2 = UNCERTAINTY_MEASURE_WITH_UNIT (LENGTH_MEASURE( 1.000000000000000082E-05 ), #119, 'distance_accuracy_value', 'NONE');
#3 = AXIS2_PLACEMENT_3D ( 'NONE', #32, #161, #11 ) ;
#4 = DIRECTION ( 'NONE',  ( 4.513377637335675026E-31, -1.000000000000000000, 1.292682732433316192E-16 ) ) ;
#5 = MANIFOLD_SOLID_BREP ( 'Corps-Déplacer/Copier1[2]', #66 ) ;
#6 = CC_DESIGN_DATE_AND_TIME_ASSIGNMENT ( #63, #131, ( #50 ) ) ;
#7 = FACE_OUTER_BOUND ( 'NONE', #43, .T. ) ;
#8 = APPROVAL_DATE_TIME ( #215, #133 ) ;
#9 =( NAMED_UNIT ( * ) SI_UNIT ( $, .STERADIAN. ) SOLID_ANGLE_UNIT ( ) );
#10 = EDGE_LOOP ( 'NONE', ( #202 ) ) ;
#11 = DIRECTION ( 'NONE',  ( 8.551662891793915461E-31, 1.000000000000000000, 2.449293598294705921E-16 ) ) ;
#12 = COORDINATED_UNIVERSAL_TIME_OFFSET ( 1, 0, .AHEAD. ) ;
#13 = CARTESIAN_POINT ( 'NONE',  ( 6.284666409917641302E-14, 2.326828918379969393E-15, 18.00000000000000355 ) ) ;
#14 = APPLICATION_PROTOCOL_DEFINITION ( 'international standard', 'config_control_design', 1994, #184 ) ;
#15 = PLANE ( 'NONE',  #16 ) ;
#16 = AXIS2_PLACEMENT_3D ( 'NONE', #74, #117, #207 ) ;
#17 = ADVANCED_FACE ( 'NONE', ( #221, #67 ), #49, .T. ) ;
#18 = DIRECTION ( 'NONE',  ( 3.491481338843133355E-15, 1.292682732433316192E-16, 1.000000000000000000 ) ) ;
#19 = ORGANIZATION ( 'UNSPECIFIED', 'UNSPECIFIED', '' ) ;
#20 = DIRECTION ( 'NONE',  ( 0.0000000000000000000, -1.000000000000000000, 0.0000000000000000000 ) ) ;
#21 = FACE_OUTER_BOUND ( 'NONE', #10, .T. ) ;
#22 = FACE_BOUND ( 'NONE', #109, .T. ) ;
#23 = FACE_OUTER_BOUND ( 'NONE', #83, .T. ) ;
#24 = CC_DESIGN_PERSON_AND_ORGANIZATION_ASSIGNMENT ( #141, #69, ( #50 ) ) ;
#25 = DIRECTION ( 'NONE',  ( 3.491481338843133355E-15, -2.449293598294705921E-16, 1.000000000000000000 ) ) ;
#26 = SECURITY_CLASSIFICATION_LEVEL ( 'unclassified' ) ;
#27 = EDGE_LOOP ( 'NONE', ( #159 ) ) ;
#28 = COORDINATED_UNIVERSAL_TIME_OFFSET ( 1, 0, .AHEAD. ) ;
#29 = EDGE_CURVE ( 'NONE', #171, #171, #35, .T. ) ;
#30 = ORIENTED_EDGE ( 'NONE', *, *, #220, .F. ) ;
#31 = APPROVAL_STATUS ( 'not_yet_approved' ) ;
#32 = CARTESIAN_POINT ( 'NONE',  ( 2.234548056859605347E-13, -8.939921633775678437E-15, 64.00000000000000000 ) ) ;
#33 = CALENDAR_DATE ( 2021, 9, 12 ) ;
#34 = PERSON_AND_ORGANIZATION ( #93, #19 ) ;
#35 = CIRCLE ( 'NONE', #55, 3.999999999999990674 ) ;
#36 = CC_DESIGN_DATE_AND_TIME_ASSIGNMENT ( #44, #110, ( #73 ) ) ;
#37 = CLOSED_SHELL ( 'NONE', ( #53, #85, #123, #1 ) ) ;
#38 = CARTESIAN_POINT ( 'NONE',  ( 4.000000000000003553, 0.0000000000000000000, 0.9999999999999865663 ) ) ;
#39 = CARTESIAN_POINT ( 'NONE',  ( 0.0000000000000000000, 0.0000000000000000000, 0.0000000000000000000 ) ) ;
#40 = CC_DESIGN_PERSON_AND_ORGANIZATION_ASSIGNMENT ( #42, #65, ( #47 ) ) ;
#41 = CARTESIAN_POINT ( 'NONE',  ( 3.000000000000000000, 0.0000000000000000000, -1.047444401652940007E-14 ) ) ;
#42 = PERSON_AND_ORGANIZATION ( #93, #19 ) ;
#43 = EDGE_LOOP ( 'NONE', ( #98 ) ) ;
#44 = DATE_AND_TIME ( #96, #124 ) ;
#45 = CIRCLE ( 'NONE', #164, 4.000000000000000000 ) ;
#46 = EDGE_LOOP ( 'NONE', ( #162 ) ) ;
#47 = PRODUCT_DEFINITION_FORMATION_WITH_SPECIFIED_SOURCE ( 'ANY', '', #170, .NOT_KNOWN. ) ;
#48 =( NAMED_UNIT ( * ) PLANE_ANGLE_UNIT ( ) SI_UNIT ( $, .RADIAN. ) );
#49 = CYLINDRICAL_SURFACE ( 'NONE', #146, 3.999999999999991562 ) ;
#50 = PRODUCT_DEFINITION ( 'UNKNOWN', '', #47, #132 ) ;
#51 = DIRECTION ( 'NONE',  ( -3.491481338843133355E-15, -1.292682732433316192E-16, -1.000000000000000000 ) ) ;
#52 = AXIS2_PLACEMENT_3D ( 'NONE', #103, #169, #138 ) ;
#53 = ADVANCED_FACE ( 'NONE', ( #188 ), #15, .F. ) ;
#54 = FACE_OUTER_BOUND ( 'NONE', #82, .T. ) ;
#55 = AXIS2_PLACEMENT_3D ( 'NONE', #168, #167, #57 ) ;
#56 = CIRCLE ( 'NONE', #187, 3.200000000000001954 ) ;
#57 = DIRECTION ( 'NONE',  ( 0.0000000000000000000, -1.000000000000000000, 0.0000000000000000000 ) ) ;
#58 = CARTESIAN_POINT ( 'NONE',  ( 2.234548056859605347E-13, -8.939921633775678437E-15, 64.00000000000000000 ) ) ;
#59 = CC_DESIGN_PERSON_AND_ORGANIZATION_ASSIGNMENT ( #203, #101, ( #47 ) ) ;
#60 = VERTEX_POINT ( 'NONE', #90 ) ;
#61 = ADVANCED_FACE ( 'NONE', ( #189 ), #149, .F. ) ;
#62 = FACE_OUTER_BOUND ( 'NONE', #46, .T. ) ;
#63 = DATE_AND_TIME ( #108, #209 ) ;
#64 = CIRCLE ( 'NONE', #186, 4.000000000000001776 ) ;
#65 = PERSON_AND_ORGANIZATION_ROLE ( 'design_supplier' ) ;
#66 = CLOSED_SHELL ( 'NONE', ( #17, #61, #163, #70 ) ) ;
#67 = FACE_OUTER_BOUND ( 'NONE', #178, .T. ) ;
#68 = CC_DESIGN_APPROVAL ( #72, ( #47 ) ) ;
#69 = PERSON_AND_ORGANIZATION_ROLE ( 'creator' ) ;
#70 = ADVANCED_FACE ( 'NONE', ( #54 ), #87, .F. ) ;
#71 = DIRECTION ( 'NONE',  ( 0.0000000000000000000, -1.000000000000000000, 0.0000000000000000000 ) ) ;
#72 = APPROVAL ( #183, 'UNSPECIFIED' ) ;
#73 = SECURITY_CLASSIFICATION ( '', '', #26 ) ;
#74 = CARTESIAN_POINT ( 'NONE',  ( 6.284666409917641302E-14, 2.326828918379969393E-15, 18.00000000000000355 ) ) ;
#75 = EDGE_CURVE ( 'NONE', #156, #156, #216, .T. ) ;
#76 = DIRECTION ( 'NONE',  ( 3.491481338843133355E-15, -2.449293598294705921E-16, 1.000000000000000000 ) ) ;
#77 = DIRECTION ( 'NONE',  ( 3.491481338843133355E-15, -2.449293598294705921E-16, 1.000000000000000000 ) ) ;
#78 = DIRECTION ( 'NONE',  ( 0.0000000000000000000, 1.000000000000000000, 0.0000000000000000000 ) ) ;
#79 = DIRECTION ( 'NONE',  ( 0.0000000000000000000, -1.000000000000000000, 0.0000000000000000000 ) ) ;
#80 = ORIENTED_EDGE ( 'NONE', *, *, #220, .T. ) ;
#81 = CALENDAR_DATE ( 2021, 9, 12 ) ;
#82 = EDGE_LOOP ( 'NONE', ( #157 ) ) ;
#83 = EDGE_LOOP ( 'NONE', ( #127 ) ) ;
#84 = LOCAL_TIME ( 13, 42, 29.00000000000000000, #140 ) ;
#85 = ADVANCED_FACE ( 'NONE', ( #21, #62 ), #94, .T. ) ;
#86 = SHAPE_DEFINITION_REPRESENTATION ( #204, #181 ) ;
#87 = PLANE ( 'NONE',  #208 ) ;
#88 = AXIS2_PLACEMENT_3D ( 'NONE', #155, #154, #78 ) ;
#89 = LOCAL_TIME ( 13, 42, 29.00000000000000000, #160 ) ;
#90 = CARTESIAN_POINT ( 'NONE',  ( 6.284666409917641302E-14, -3.999999999999988010, 18.00000000000000355 ) ) ;
#91 = CARTESIAN_POINT ( 'NONE',  ( 6.284666409917641302E-14, 2.326828918379968998E-15, 18.00000000000000355 ) ) ;
#92 = EDGE_CURVE ( 'NONE', #139, #139, #64, .T. ) ;
#93 = PERSON ( 'UNSPECIFIED', 'UNSPECIFIED', 'UNSPECIFIED', ('UNSPECIFIED'), ('UNSPECIFIED'), ('UNSPECIFIED') ) ;
#94 = CYLINDRICAL_SURFACE ( 'NONE', #136, 3.999999999999996447 ) ;
#95 = CARTESIAN_POINT ( 'NONE',  ( 2.206616206148860281E-13, -4.000000000000010658, 63.20000000000000284 ) ) ;
#96 = CALENDAR_DATE ( 2021, 9, 12 ) ;
#97 = CC_DESIGN_APPROVAL ( #197, ( #73 ) ) ;
#98 = ORIENTED_EDGE ( 'NONE', *, *, #92, .T. ) ;
#99 = APPROVAL_ROLE ( '' ) ;
#100 = EDGE_LOOP ( 'NONE', ( #147 ) ) ;
#101 = PERSON_AND_ORGANIZATION_ROLE ( 'creator' ) ;
#102 = CC_DESIGN_PERSON_AND_ORGANIZATION_ASSIGNMENT ( #218, #222, ( #170 ) ) ;
#103 = CARTESIAN_POINT ( 'NONE',  ( 3.491481338843134933E-15, 0.0000000000000000000, 1.000000000000000444 ) ) ;
#104 = DIRECTION ( 'NONE',  ( 3.491481338843133355E-15, -2.449293598294705921E-16, 1.000000000000000000 ) ) ;
#105 = DIRECTION ( 'NONE',  ( 1.000000000000000000, 0.0000000000000000000, -3.491481338843133355E-15 ) ) ;
#106 = APPROVAL_PERSON_ORGANIZATION ( #129, #133, #143 ) ;
#107 = CARTESIAN_POINT ( 'NONE',  ( 0.0000000000000000000, 0.0000000000000000000, 0.0000000000000000000 ) ) ;
#108 = CALENDAR_DATE ( 2021, 9, 12 ) ;
#109 = EDGE_LOOP ( 'NONE', ( #30 ) ) ;
#110 = DATE_TIME_ROLE ( 'classification_date' ) ;
#111 = FACE_OUTER_BOUND ( 'NONE', #219, .T. ) ;
#112 = APPLICATION_PROTOCOL_DEFINITION ( 'international standard', 'config_control_design', 1994, #192 ) ;
#113 = TOROIDAL_SURFACE ( 'NONE', #52, 3.000000000000000000, 1.000000000000000222 ) ;
#114 = AXIS2_PLACEMENT_3D ( 'NONE', #39, #194, #105 ) ;
#115 = CARTESIAN_POINT ( 'NONE',  ( -9.026755274671334287E-31, 3.999999999999993339, -2.585365464866627947E-16 ) ) ;
#116 = APPROVAL_PERSON_ORGANIZATION ( #180, #197, #99 ) ;
#117 = DIRECTION ( 'NONE',  ( 3.491481338843133355E-15, -2.449293598294705921E-16, 1.000000000000000000 ) ) ;
#118 = PRODUCT_RELATED_PRODUCT_CATEGORY ( 'detail', '', ( #170 ) ) ;
#119 =( LENGTH_UNIT ( ) NAMED_UNIT ( * ) SI_UNIT ( .MILLI., .METRE. ) );
#120 = CIRCLE ( 'NONE', #130, 3.999999999999990674 ) ;
#121 = CARTESIAN_POINT ( 'NONE',  ( 2.234548056859605347E-13, -8.939921633775678437E-15, 64.00000000000000000 ) ) ;
#122 = DIRECTION ( 'NONE',  ( 0.0000000000000000000, -1.000000000000000000, 0.0000000000000000000 ) ) ;
#123 = ADVANCED_FACE ( 'NONE', ( #22, #7 ), #166, .T. ) ;
#124 = LOCAL_TIME ( 13, 42, 29.00000000000000000, #28 ) ;
#125 = MECHANICAL_CONTEXT ( 'NONE', #192, 'mechanical' ) ;
#126 = PERSON_AND_ORGANIZATION ( #93, #19 ) ;
#127 = ORIENTED_EDGE ( 'NONE', *, *, #75, .T. ) ;
#128 = ORIENTED_EDGE ( 'NONE', *, *, #176, .T. ) ;
#129 = PERSON_AND_ORGANIZATION ( #93, #19 ) ;
#130 = AXIS2_PLACEMENT_3D ( 'NONE', #91, #104, #20 ) ;
#131 = DATE_TIME_ROLE ( 'creation_date' ) ;
#132 = DESIGN_CONTEXT ( 'detailed design', #184, 'design' ) ;
#133 = APPROVAL ( #185, 'UNSPECIFIED' ) ;
#134 = VERTEX_POINT ( 'NONE', #211 ) ;
#135 = DIRECTION ( 'NONE',  ( 0.0000000000000000000, -1.000000000000000000, 0.0000000000000000000 ) ) ;
#136 = AXIS2_PLACEMENT_3D ( 'NONE', #121, #25, #122 ) ;
#137 =( GEOMETRIC_REPRESENTATION_CONTEXT ( 3 ) GLOBAL_UNCERTAINTY_ASSIGNED_CONTEXT ( ( #2 ) ) GLOBAL_UNIT_ASSIGNED_CONTEXT ( ( #119, #48, #9 ) ) REPRESENTATION_CONTEXT ( 'NONE', 'WORKASPACE' ) );
#138 = DIRECTION ( 'NONE',  ( 1.000000000000000000, 0.0000000000000000000, -3.491481338843133355E-15 ) ) ;
#139 = VERTEX_POINT ( 'NONE', #95 ) ;
#140 = COORDINATED_UNIVERSAL_TIME_OFFSET ( 1, 0, .AHEAD. ) ;
#141 = PERSON_AND_ORGANIZATION ( #93, #19 ) ;
#142 = ORIENTED_EDGE ( 'NONE', *, *, #29, .F. ) ;
#143 = APPROVAL_ROLE ( '' ) ;
#144 = DATE_AND_TIME ( #81, #89 ) ;
#145 = EDGE_LOOP ( 'NONE', ( #205 ) ) ;
#146 = AXIS2_PLACEMENT_3D ( 'NONE', #13, #223, #71 ) ;
#147 = ORIENTED_EDGE ( 'NONE', *, *, #176, .F. ) ;
#148 = MANIFOLD_SOLID_BREP ( 'Corps-Déplacer/Copier1[1]', #37 ) ;
#149 = PLANE ( 'NONE',  #152 ) ;
#150 = LOCAL_TIME ( 13, 42, 29.00000000000000000, #196 ) ;
#151 = DIRECTION ( 'NONE',  ( -4.513377637335675026E-31, 1.000000000000000000, -1.292682732433316192E-16 ) ) ;
#152 = AXIS2_PLACEMENT_3D ( 'NONE', #206, #51, #151 ) ;
#153 = CC_DESIGN_SECURITY_CLASSIFICATION ( #73, ( #47 ) ) ;
#154 = DIRECTION ( 'NONE',  ( -3.491481338843133355E-15, 2.449293598294705921E-16, -1.000000000000000000 ) ) ;
#155 = CARTESIAN_POINT ( 'NONE',  ( 2.206616206148860281E-13, -8.743978145912103147E-15, 63.20000000000000284 ) ) ;
#156 = VERTEX_POINT ( 'NONE', #41 ) ;
#157 = ORIENTED_EDGE ( 'NONE', *, *, #75, .F. ) ;
#158 = DIRECTION ( 'NONE',  ( 1.000000000000000000, 0.0000000000000000000, 0.0000000000000000000 ) ) ;
#159 = ORIENTED_EDGE ( 'NONE', *, *, #212, .F. ) ;
#160 = COORDINATED_UNIVERSAL_TIME_OFFSET ( 1, 0, .AHEAD. ) ;
#161 = DIRECTION ( 'NONE',  ( -3.491481338843133355E-15, 2.449293598294705921E-16, -1.000000000000000000 ) ) ;
#162 = ORIENTED_EDGE ( 'NONE', *, *, #212, .T. ) ;
#163 = ADVANCED_FACE ( 'NONE', ( #23, #195 ), #113, .T. ) ;
#164 = AXIS2_PLACEMENT_3D ( 'NONE', #214, #172, #193 ) ;
#165 = APPROVAL_DATE_TIME ( #144, #197 ) ;
#166 = CONICAL_SURFACE ( 'NONE', #88, 4.000000000000001776, 0.7853981633974512766 ) ;
#167 = DIRECTION ( 'NONE',  ( 3.491481338843133355E-15, 1.292682732433316192E-16, 1.000000000000000000 ) ) ;
#168 = CARTESIAN_POINT ( 'NONE',  ( 6.284666409917640040E-14, 2.326828918379968998E-15, 18.00000000000000000 ) ) ;
#169 = DIRECTION ( 'NONE',  ( 3.491481338843133355E-15, -0.0000000000000000000, 1.000000000000000000 ) ) ;
#170 = PRODUCT ( '392833', '392833', '', ( #125 ) ) ;
#171 = VERTEX_POINT ( 'NONE', #210 ) ;
#172 = DIRECTION ( 'NONE',  ( 3.491481338843133355E-15, -0.0000000000000000000, 1.000000000000000000 ) ) ;
#173 = AXIS2_PLACEMENT_3D ( 'NONE', #107, #199, #158 ) ;
#174 = VERTEX_POINT ( 'NONE', #38 ) ;
#175 = CALENDAR_DATE ( 2021, 9, 12 ) ;
#176 = EDGE_CURVE ( 'NONE', #174, #174, #45, .T. ) ;
#177 = PERSON_AND_ORGANIZATION_ROLE ( 'classification_officer' ) ;
#178 = EDGE_LOOP ( 'NONE', ( #128 ) ) ;
#179 = CC_DESIGN_APPROVAL ( #133, ( #50 ) ) ;
#180 = PERSON_AND_ORGANIZATION ( #93, #19 ) ;
#181 = ADVANCED_BREP_SHAPE_REPRESENTATION ( '392833', ( #148, #5, #173 ), #137 ) ;
#182 = PLANE ( 'NONE',  #3 ) ;
#183 = APPROVAL_STATUS ( 'not_yet_approved' ) ;
#184 = APPLICATION_CONTEXT ( 'configuration controlled 3d designs of mechanical parts and assemblies' ) ;
#185 = APPROVAL_STATUS ( 'not_yet_approved' ) ;
#186 = AXIS2_PLACEMENT_3D ( 'NONE', #191, #77, #135 ) ;
#187 = AXIS2_PLACEMENT_3D ( 'NONE', #58, #76, #79 ) ;
#188 = FACE_OUTER_BOUND ( 'NONE', #27, .T. ) ;
#189 = FACE_OUTER_BOUND ( 'NONE', #145, .T. ) ;
#190 = CC_DESIGN_PERSON_AND_ORGANIZATION_ASSIGNMENT ( #126, #177, ( #73 ) ) ;
#191 = CARTESIAN_POINT ( 'NONE',  ( 2.206616206148860281E-13, -8.743978145912103147E-15, 63.20000000000000284 ) ) ;
#192 = APPLICATION_CONTEXT ( 'configuration controlled 3d designs of mechanical parts and assemblies' ) ;
#193 = DIRECTION ( 'NONE',  ( 1.000000000000000000, 0.0000000000000000000, -3.469446951953614189E-15 ) ) ;
#194 = DIRECTION ( 'NONE',  ( 3.491481338843133355E-15, -0.0000000000000000000, 1.000000000000000000 ) ) ;
#195 = FACE_OUTER_BOUND ( 'NONE', #100, .T. ) ;
#196 = COORDINATED_UNIVERSAL_TIME_OFFSET ( 1, 0, .AHEAD. ) ;
#197 = APPROVAL ( #31, 'UNSPECIFIED' ) ;
#198 = APPROVAL_ROLE ( '' ) ;
#199 = DIRECTION ( 'NONE',  ( 0.0000000000000000000, 0.0000000000000000000, 1.000000000000000000 ) ) ;
#200 = EDGE_LOOP ( 'NONE', ( #142 ) ) ;
#201 = DATE_AND_TIME ( #33, #150 ) ;
#202 = ORIENTED_EDGE ( 'NONE', *, *, #92, .F. ) ;
#203 = PERSON_AND_ORGANIZATION ( #93, #19 ) ;
#204 = PRODUCT_DEFINITION_SHAPE ( 'NONE', 'NONE',  #50 ) ;
#205 = ORIENTED_EDGE ( 'NONE', *, *, #29, .T. ) ;
#206 = CARTESIAN_POINT ( 'NONE',  ( 6.284666409917641302E-14, 2.326828918379969393E-15, 18.00000000000000355 ) ) ;
#207 = DIRECTION ( 'NONE',  ( -8.551662891793915461E-31, -1.000000000000000000, -2.449293598294705921E-16 ) ) ;
#208 = AXIS2_PLACEMENT_3D ( 'NONE', #115, #18, #4 ) ;
#209 = LOCAL_TIME ( 13, 42, 29.00000000000000000, #12 ) ;
#210 = CARTESIAN_POINT ( 'NONE',  ( 6.284666409917640040E-14, -3.999999999999988010, 18.00000000000000000 ) ) ;
#211 = CARTESIAN_POINT ( 'NONE',  ( 2.234548056859605347E-13, -3.200000000000010836, 64.00000000000000000 ) ) ;
#212 = EDGE_CURVE ( 'NONE', #60, #60, #120, .T. ) ;
#213 = APPROVAL_PERSON_ORGANIZATION ( #34, #72, #198 ) ;
#214 = CARTESIAN_POINT ( 'NONE',  ( 3.491481338843134933E-15, 0.0000000000000000000, 1.000000000000000444 ) ) ;
#215 = DATE_AND_TIME ( #175, #84 ) ;
#216 = CIRCLE ( 'NONE', #114, 3.000000000000000000 ) ;
#217 = APPROVAL_DATE_TIME ( #201, #72 ) ;
#218 = PERSON_AND_ORGANIZATION ( #93, #19 ) ;
#219 = EDGE_LOOP ( 'NONE', ( #80 ) ) ;
#220 = EDGE_CURVE ( 'NONE', #134, #134, #56, .T. ) ;
#221 = FACE_OUTER_BOUND ( 'NONE', #200, .T. ) ;
#222 = PERSON_AND_ORGANIZATION_ROLE ( 'design_owner' ) ;
#223 = DIRECTION ( 'NONE',  ( 3.491481338843133355E-15, 1.292682732433316192E-16, 1.000000000000000000 ) ) ;
ENDSEC;
END-ISO-10303-21;
