ISO-10303-21;
HEADER;
FILE_DESCRIPTION (( 'STEP AP203' ),
    '1' );
FILE_NAME ('392832.step',
    '2021-12-09T12:42:28',
    ( '' ),
    ( '' ),
    'SwSTEP 2.0',
    'SolidWorks 2019',
    '' );
FILE_SCHEMA (( 'CONFIG_CONTROL_DESIGN' ));
ENDSEC;

DATA;
#1 = CALENDAR_DATE ( 2021, 9, 12 ) ;
#2 = FACE_OUTER_BOUND ( 'NONE', #149, .T. ) ;
#3 = CARTESIAN_POINT ( 'NONE',  ( 2.206616206148860281E-13, -8.743978145912103147E-15, 63.20000000000000284 ) ) ;
#4 = FACE_OUTER_BOUND ( 'NONE', #10, .T. ) ;
#5 = ADVANCED_FACE ( 'NONE', ( #136 ), #199, .F. ) ;
#6 = EDGE_LOOP ( 'NONE', ( #216 ) ) ;
#7 = PERSON ( 'UNSPECIFIED', 'UNSPECIFIED', 'UNSPECIFIED', ('UNSPECIFIED'), ('UNSPECIFIED'), ('UNSPECIFIED') ) ;
#8 = EDGE_LOOP ( 'NONE', ( #11 ) ) ;
#9 = DIRECTION ( 'NONE',  ( 3.491481338843133355E-15, -2.449293598294705921E-16, 1.000000000000000000 ) ) ;
#10 = EDGE_LOOP ( 'NONE', ( #170 ) ) ;
#11 = ORIENTED_EDGE ( 'NONE', *, *, #143, .T. ) ;
#12 = CIRCLE ( 'NONE', #217, 4.000000000000001776 ) ;
#13 = CARTESIAN_POINT ( 'NONE',  ( -9.026755274671334287E-31, 3.999999999999993339, -2.585365464866627947E-16 ) ) ;
#14 = APPROVAL_STATUS ( 'not_yet_approved' ) ;
#15 = APPLICATION_PROTOCOL_DEFINITION ( 'international standard', 'config_control_design', 1994, #194 ) ;
#16 = ADVANCED_FACE ( 'NONE', ( #189, #70 ), #193, .T. ) ;
#17 = DIRECTION ( 'NONE',  ( 1.000000000000000000, 0.0000000000000000000, -3.496552006265751800E-15 ) ) ;
#18 = CARTESIAN_POINT ( 'NONE',  ( 2.206616206148860281E-13, -4.000000000000010658, 63.20000000000000284 ) ) ;
#19 = CARTESIAN_POINT ( 'NONE',  ( 1.745740669421566678E-15, 0.0000000000000000000, 0.5000000000000000000 ) ) ;
#20 = EDGE_LOOP ( 'NONE', ( #49 ) ) ;
#21 = AXIS2_PLACEMENT_3D ( 'NONE', #13, #219, #35 ) ;
#22 = DATE_TIME_ROLE ( 'classification_date' ) ;
#23 = CARTESIAN_POINT ( 'NONE',  ( 2.206616206148860281E-13, -8.743978145912103147E-15, 63.20000000000000284 ) ) ;
#24 = APPROVAL_DATE_TIME ( #113, #88 ) ;
#25 = PLANE ( 'NONE',  #96 ) ;
#26 = AXIS2_PLACEMENT_3D ( 'NONE', #19, #169, #17 ) ;
#27 = LOCAL_TIME ( 13, 42, 28.00000000000000000, #84 ) ;
#28 = PLANE ( 'NONE',  #103 ) ;
#29 = CIRCLE ( 'NONE', #153, 3.999999999999990674 ) ;
#30 = ORIENTED_EDGE ( 'NONE', *, *, #206, .T. ) ;
#31 = CARTESIAN_POINT ( 'NONE',  ( -3.785471652766322713E-31, 0.0000000000000000000, -1.084202172485504434E-16 ) ) ;
#32 = DATE_TIME_ROLE ( 'creation_date' ) ;
#33 = CC_DESIGN_SECURITY_CLASSIFICATION ( #41, ( #90 ) ) ;
#34 = EDGE_CURVE ( 'NONE', #218, #218, #56, .T. ) ;
#35 = DIRECTION ( 'NONE',  ( 4.513377637335675026E-31, -1.000000000000000000, 1.292682732433316192E-16 ) ) ;
#36 = CARTESIAN_POINT ( 'NONE',  ( 1.745740669421566678E-15, 0.0000000000000000000, 0.5000000000000000000 ) ) ;
#37 = DIRECTION ( 'NONE',  ( 0.0000000000000000000, -1.000000000000000000, 0.0000000000000000000 ) ) ;
#38 = APPROVAL_STATUS ( 'not_yet_approved' ) ;
#39 = ADVANCED_FACE ( 'NONE', ( #93, #2 ), #51, .T. ) ;
#40 = AXIS2_PLACEMENT_3D ( 'NONE', #79, #214, #127 ) ;
#41 = SECURITY_CLASSIFICATION ( '', '', #92 ) ;
#42 = CALENDAR_DATE ( 2021, 9, 12 ) ;
#43 = DIRECTION ( 'NONE',  ( 0.0000000000000000000, -1.000000000000000000, 0.0000000000000000000 ) ) ;
#44 = CARTESIAN_POINT ( 'NONE',  ( 6.284666409917641302E-14, 2.326828918379968998E-15, 18.00000000000000355 ) ) ;
#45 = DIRECTION ( 'NONE',  ( 3.491481338843133355E-15, 1.292682732433316192E-16, 1.000000000000000000 ) ) ;
#46 = FACE_OUTER_BOUND ( 'NONE', #8, .T. ) ;
#47 = PRODUCT_RELATED_PRODUCT_CATEGORY ( 'detail', '', ( #200 ) ) ;
#48 = CARTESIAN_POINT ( 'NONE',  ( 6.284666409917641302E-14, 2.326828918379969393E-15, 18.00000000000000355 ) ) ;
#49 = ORIENTED_EDGE ( 'NONE', *, *, #143, .F. ) ;
#50 = DIRECTION ( 'NONE',  ( 1.000000000000000000, 0.0000000000000000000, -3.491481338843133355E-15 ) ) ;
#51 = CONICAL_SURFACE ( 'NONE', #221, 4.000000000000001776, 0.7853981633974512766 ) ;
#52 = PERSON_AND_ORGANIZATION_ROLE ( 'creator' ) ;
#53 = CIRCLE ( 'NONE', #181, 3.499999999999999556 ) ;
#54 = PERSON_AND_ORGANIZATION ( #7, #117 ) ;
#55 = ADVANCED_FACE ( 'NONE', ( #161, #211 ), #159, .T. ) ;
#56 = CIRCLE ( 'NONE', #209, 3.200000000000001954 ) ;
#57 = PERSON_AND_ORGANIZATION_ROLE ( 'creator' ) ;
#58 = CARTESIAN_POINT ( 'NONE',  ( 6.284666409917641302E-14, 2.326828918379969393E-15, 18.00000000000000355 ) ) ;
#59 = DIRECTION ( 'NONE',  ( -3.491481338843133355E-15, 2.449293598294705921E-16, -1.000000000000000000 ) ) ;
#60 = VERTEX_POINT ( 'NONE', #61 ) ;
#61 = CARTESIAN_POINT ( 'NONE',  ( 6.284666409917640040E-14, -3.999999999999988010, 18.00000000000000000 ) ) ;
#62 = PRODUCT_DEFINITION ( 'UNKNOWN', '', #90, #178 ) ;
#63 = EDGE_LOOP ( 'NONE', ( #122 ) ) ;
#64 = COORDINATED_UNIVERSAL_TIME_OFFSET ( 1, 0, .AHEAD. ) ;
#65 = ADVANCED_FACE ( 'NONE', ( #4 ), #28, .F. ) ;
#66 = MANIFOLD_SOLID_BREP ( 'Corps-Déplacer/Copier1[1]', #71 ) ;
#67 =( LENGTH_UNIT ( ) NAMED_UNIT ( * ) SI_UNIT ( .MILLI., .METRE. ) );
#68 = VERTEX_POINT ( 'NONE', #137 ) ;
#69 =( NAMED_UNIT ( * ) PLANE_ANGLE_UNIT ( ) SI_UNIT ( $, .RADIAN. ) );
#70 = FACE_OUTER_BOUND ( 'NONE', #166, .T. ) ;
#71 = CLOSED_SHELL ( 'NONE', ( #158, #196, #39, #65 ) ) ;
#72 = DIRECTION ( 'NONE',  ( 3.491481338843133355E-15, -2.449293598294705921E-16, 1.000000000000000000 ) ) ;
#73 = CC_DESIGN_PERSON_AND_ORGANIZATION_ASSIGNMENT ( #154, #86, ( #200 ) ) ;
#74 = DIRECTION ( 'NONE',  ( 3.491481338843133355E-15, -2.449293598294705921E-16, 1.000000000000000000 ) ) ;
#75 = DATE_AND_TIME ( #1, #213 ) ;
#76 = CARTESIAN_POINT ( 'NONE',  ( 2.234548056859605347E-13, -8.939921633775678437E-15, 64.00000000000000000 ) ) ;
#77 = CARTESIAN_POINT ( 'NONE',  ( 2.234548056859605347E-13, -8.939921633775678437E-15, 64.00000000000000000 ) ) ;
#78 = ORIENTED_EDGE ( 'NONE', *, *, #175, .T. ) ;
#79 = CARTESIAN_POINT ( 'NONE',  ( 6.284666409917640040E-14, 2.326828918379968998E-15, 18.00000000000000000 ) ) ;
#80 = CC_DESIGN_PERSON_AND_ORGANIZATION_ASSIGNMENT ( #115, #162, ( #41 ) ) ;
#81 = EDGE_LOOP ( 'NONE', ( #147 ) ) ;
#82 = VERTEX_POINT ( 'NONE', #99 ) ;
#83 = APPROVAL_ROLE ( '' ) ;
#84 = COORDINATED_UNIVERSAL_TIME_OFFSET ( 1, 0, .AHEAD. ) ;
#85 = AXIS2_PLACEMENT_3D ( 'NONE', #48, #123, #185 ) ;
#86 = PERSON_AND_ORGANIZATION_ROLE ( 'design_owner' ) ;
#87 = LOCAL_TIME ( 13, 42, 28.00000000000000000, #64 ) ;
#88 = APPROVAL ( #174, 'UNSPECIFIED' ) ;
#89 = APPROVAL_DATE_TIME ( #203, #152 ) ;
#90 = PRODUCT_DEFINITION_FORMATION_WITH_SPECIFIED_SOURCE ( 'ANY', '', #200, .NOT_KNOWN. ) ;
#91 = PERSON_AND_ORGANIZATION ( #7, #117 ) ;
#92 = SECURITY_CLASSIFICATION_LEVEL ( 'unclassified' ) ;
#93 = FACE_BOUND ( 'NONE', #120, .T. ) ;
#94 = DIRECTION ( 'NONE',  ( -8.551662891793915461E-31, -1.000000000000000000, -2.449293598294705921E-16 ) ) ;
#95 = CALENDAR_DATE ( 2021, 9, 12 ) ;
#96 = AXIS2_PLACEMENT_3D ( 'NONE', #192, #112, #94 ) ;
#97 = LOCAL_TIME ( 13, 42, 28.00000000000000000, #157 ) ;
#98 = DIRECTION ( 'NONE',  ( 0.0000000000000000000, 1.000000000000000000, 0.0000000000000000000 ) ) ;
#99 = CARTESIAN_POINT ( 'NONE',  ( 6.284666409917641302E-14, -3.999999999999988010, 18.00000000000000355 ) ) ;
#100 = DIRECTION ( 'NONE',  ( 8.551662891793915461E-31, 1.000000000000000000, 2.449293598294705921E-16 ) ) ;
#101 = VERTEX_POINT ( 'NONE', #18 ) ;
#102 = ORIENTED_EDGE ( 'NONE', *, *, #34, .F. ) ;
#103 = AXIS2_PLACEMENT_3D ( 'NONE', #77, #59, #100 ) ;
#104 = CARTESIAN_POINT ( 'NONE',  ( 2.234548056859605347E-13, -8.939921633775678437E-15, 64.00000000000000000 ) ) ;
#105 = ORIENTED_EDGE ( 'NONE', *, *, #183, .T. ) ;
#106 = PERSON_AND_ORGANIZATION ( #7, #117 ) ;
#107 = ADVANCED_BREP_SHAPE_REPRESENTATION ( '392832', ( #66, #141, #130 ), #131 ) ;
#108 = PRODUCT_DEFINITION_SHAPE ( 'NONE', 'NONE',  #62 ) ;
#109 = CARTESIAN_POINT ( 'NONE',  ( 0.0000000000000000000, 0.0000000000000000000, 0.0000000000000000000 ) ) ;
#110 = CC_DESIGN_DATE_AND_TIME_ASSIGNMENT ( #75, #22, ( #41 ) ) ;
#111 = PERSON_AND_ORGANIZATION_ROLE ( 'design_supplier' ) ;
#112 = DIRECTION ( 'NONE',  ( 3.491481338843133355E-15, -2.449293598294705921E-16, 1.000000000000000000 ) ) ;
#113 = DATE_AND_TIME ( #133, #97 ) ;
#114 = DIRECTION ( 'NONE',  ( 1.000000000000000000, 0.0000000000000000000, -3.491481338843133355E-15 ) ) ;
#115 = PERSON_AND_ORGANIZATION ( #7, #117 ) ;
#116 = ORIENTED_EDGE ( 'NONE', *, *, #206, .F. ) ;
#117 = ORGANIZATION ( 'UNSPECIFIED', 'UNSPECIFIED', '' ) ;
#118 = PLANE ( 'NONE',  #85 ) ;
#119 = AXIS2_PLACEMENT_3D ( 'NONE', #104, #9, #215 ) ;
#120 = EDGE_LOOP ( 'NONE', ( #102 ) ) ;
#121 = APPROVAL_PERSON_ORGANIZATION ( #124, #152, #191 ) ;
#122 = ORIENTED_EDGE ( 'NONE', *, *, #138, .T. ) ;
#123 = DIRECTION ( 'NONE',  ( -3.491481338843133355E-15, -1.292682732433316192E-16, -1.000000000000000000 ) ) ;
#124 = PERSON_AND_ORGANIZATION ( #7, #117 ) ;
#125 = CC_DESIGN_PERSON_AND_ORGANIZATION_ASSIGNMENT ( #54, #111, ( #90 ) ) ;
#126 = CIRCLE ( 'NONE', #26, 4.000000000000000000 ) ;
#127 = DIRECTION ( 'NONE',  ( 0.0000000000000000000, -1.000000000000000000, 0.0000000000000000000 ) ) ;
#128 = DATE_AND_TIME ( #95, #139 ) ;
#129 = AXIS2_PLACEMENT_3D ( 'NONE', #58, #45, #164 ) ;
#130 = AXIS2_PLACEMENT_3D ( 'NONE', #109, #172, #207 ) ;
#131 =( GEOMETRIC_REPRESENTATION_CONTEXT ( 3 ) GLOBAL_UNCERTAINTY_ASSIGNED_CONTEXT ( ( #163 ) ) GLOBAL_UNIT_ASSIGNED_CONTEXT ( ( #67, #69, #188 ) ) REPRESENTATION_CONTEXT ( 'NONE', 'WORKASPACE' ) );
#132 = CC_DESIGN_PERSON_AND_ORGANIZATION_ASSIGNMENT ( #223, #57, ( #90 ) ) ;
#133 = CALENDAR_DATE ( 2021, 9, 12 ) ;
#134 = CC_DESIGN_APPROVAL ( #88, ( #41 ) ) ;
#135 = EDGE_LOOP ( 'NONE', ( #105 ) ) ;
#136 = FACE_OUTER_BOUND ( 'NONE', #195, .T. ) ;
#137 = CARTESIAN_POINT ( 'NONE',  ( 4.000000000000001776, 0.0000000000000000000, 0.4999999999999860112 ) ) ;
#138 = EDGE_CURVE ( 'NONE', #82, #82, #29, .T. ) ;
#139 = LOCAL_TIME ( 13, 42, 28.00000000000000000, #179 ) ;
#140 = MECHANICAL_CONTEXT ( 'NONE', #222, 'mechanical' ) ;
#141 = MANIFOLD_SOLID_BREP ( 'Corps-Déplacer/Copier1[2]', #144 ) ;
#142 = DIRECTION ( 'NONE',  ( 0.0000000000000000000, -1.000000000000000000, 0.0000000000000000000 ) ) ;
#143 = EDGE_CURVE ( 'NONE', #60, #60, #184, .T. ) ;
#144 = CLOSED_SHELL ( 'NONE', ( #55, #220, #16, #5 ) ) ;
#145 = APPROVAL_ROLE ( '' ) ;
#146 = AXIS2_PLACEMENT_3D ( 'NONE', #36, #204, #114 ) ;
#147 = ORIENTED_EDGE ( 'NONE', *, *, #175, .F. ) ;
#148 = DIRECTION ( 'NONE',  ( -3.491481338843133355E-15, 2.449293598294705921E-16, -1.000000000000000000 ) ) ;
#149 = EDGE_LOOP ( 'NONE', ( #78 ) ) ;
#150 = APPROVAL_PERSON_ORGANIZATION ( #106, #186, #83 ) ;
#151 = FACE_OUTER_BOUND ( 'NONE', #81, .T. ) ;
#152 = APPROVAL ( #38, 'UNSPECIFIED' ) ;
#153 = AXIS2_PLACEMENT_3D ( 'NONE', #44, #74, #43 ) ;
#154 = PERSON_AND_ORGANIZATION ( #7, #117 ) ;
#155 = CARTESIAN_POINT ( 'NONE',  ( 3.499999999999999556, 0.0000000000000000000, -1.232860490319951561E-14 ) ) ;
#156 = PERSON_AND_ORGANIZATION ( #7, #117 ) ;
#157 = COORDINATED_UNIVERSAL_TIME_OFFSET ( 1, 0, .AHEAD. ) ;
#158 = ADVANCED_FACE ( 'NONE', ( #176 ), #25, .F. ) ;
#159 = CYLINDRICAL_SURFACE ( 'NONE', #129, 3.999999999999991562 ) ;
#160 = SHAPE_DEFINITION_REPRESENTATION ( #108, #107 ) ;
#161 = FACE_OUTER_BOUND ( 'NONE', #20, .T. ) ;
#162 = PERSON_AND_ORGANIZATION_ROLE ( 'classification_officer' ) ;
#163 = UNCERTAINTY_MEASURE_WITH_UNIT (LENGTH_MEASURE( 1.000000000000000082E-05 ), #67, 'distance_accuracy_value', 'NONE');
#164 = DIRECTION ( 'NONE',  ( 0.0000000000000000000, -1.000000000000000000, 0.0000000000000000000 ) ) ;
#165 = CC_DESIGN_PERSON_AND_ORGANIZATION_ASSIGNMENT ( #156, #52, ( #62 ) ) ;
#166 = EDGE_LOOP ( 'NONE', ( #210 ) ) ;
#167 = EDGE_LOOP ( 'NONE', ( #30 ) ) ;
#168 = CARTESIAN_POINT ( 'NONE',  ( 2.234548056859605347E-13, -3.200000000000010836, 64.00000000000000000 ) ) ;
#169 = DIRECTION ( 'NONE',  ( 3.491481338843133355E-15, -0.0000000000000000000, 1.000000000000000000 ) ) ;
#170 = ORIENTED_EDGE ( 'NONE', *, *, #34, .T. ) ;
#171 = CALENDAR_DATE ( 2021, 9, 12 ) ;
#172 = DIRECTION ( 'NONE',  ( 0.0000000000000000000, 0.0000000000000000000, 1.000000000000000000 ) ) ;
#173 = VERTEX_POINT ( 'NONE', #155 ) ;
#174 = APPROVAL_STATUS ( 'not_yet_approved' ) ;
#175 = EDGE_CURVE ( 'NONE', #101, #101, #12, .T. ) ;
#176 = FACE_OUTER_BOUND ( 'NONE', #6, .T. ) ;
#177 = COORDINATED_UNIVERSAL_TIME_OFFSET ( 1, 0, .AHEAD. ) ;
#178 = DESIGN_CONTEXT ( 'detailed design', #194, 'design' ) ;
#179 = COORDINATED_UNIVERSAL_TIME_OFFSET ( 1, 0, .AHEAD. ) ;
#180 = CC_DESIGN_DATE_AND_TIME_ASSIGNMENT ( #187, #32, ( #62 ) ) ;
#181 = AXIS2_PLACEMENT_3D ( 'NONE', #31, #197, #50 ) ;
#182 = CC_DESIGN_APPROVAL ( #186, ( #90 ) ) ;
#183 = EDGE_CURVE ( 'NONE', #68, #68, #126, .T. ) ;
#184 = CIRCLE ( 'NONE', #40, 3.999999999999990674 ) ;
#185 = DIRECTION ( 'NONE',  ( -4.513377637335675026E-31, 1.000000000000000000, -1.292682732433316192E-16 ) ) ;
#186 = APPROVAL ( #14, 'UNSPECIFIED' ) ;
#187 = DATE_AND_TIME ( #171, #87 ) ;
#188 =( NAMED_UNIT ( * ) SI_UNIT ( $, .STERADIAN. ) SOLID_ANGLE_UNIT ( ) );
#189 = FACE_OUTER_BOUND ( 'NONE', #167, .T. ) ;
#190 = APPROVAL_PERSON_ORGANIZATION ( #91, #88, #145 ) ;
#191 = APPROVAL_ROLE ( '' ) ;
#192 = CARTESIAN_POINT ( 'NONE',  ( 6.284666409917641302E-14, 2.326828918379969393E-15, 18.00000000000000355 ) ) ;
#193 = TOROIDAL_SURFACE ( 'NONE', #146, 3.499999999999999556, 0.5000000000000002220 ) ;
#194 = APPLICATION_CONTEXT ( 'configuration controlled 3d designs of mechanical parts and assemblies' ) ;
#195 = EDGE_LOOP ( 'NONE', ( #116 ) ) ;
#196 = ADVANCED_FACE ( 'NONE', ( #151, #198 ), #212, .T. ) ;
#197 = DIRECTION ( 'NONE',  ( 3.491481338843133355E-15, -0.0000000000000000000, 1.000000000000000000 ) ) ;
#198 = FACE_OUTER_BOUND ( 'NONE', #63, .T. ) ;
#199 = PLANE ( 'NONE',  #21 ) ;
#200 = PRODUCT ( '392832', '392832', '', ( #140 ) ) ;
#201 = APPLICATION_PROTOCOL_DEFINITION ( 'international standard', 'config_control_design', 1994, #222 ) ;
#202 = CC_DESIGN_APPROVAL ( #152, ( #62 ) ) ;
#203 = DATE_AND_TIME ( #42, #27 ) ;
#204 = DIRECTION ( 'NONE',  ( 3.491481338843133355E-15, -0.0000000000000000000, 1.000000000000000000 ) ) ;
#205 = DIRECTION ( 'NONE',  ( 3.491481338843133355E-15, -2.449293598294705921E-16, 1.000000000000000000 ) ) ;
#206 = EDGE_CURVE ( 'NONE', #173, #173, #53, .T. ) ;
#207 = DIRECTION ( 'NONE',  ( 1.000000000000000000, 0.0000000000000000000, 0.0000000000000000000 ) ) ;
#208 = APPROVAL_DATE_TIME ( #128, #186 ) ;
#209 = AXIS2_PLACEMENT_3D ( 'NONE', #76, #72, #142 ) ;
#210 = ORIENTED_EDGE ( 'NONE', *, *, #183, .F. ) ;
#211 = FACE_OUTER_BOUND ( 'NONE', #135, .T. ) ;
#212 = CYLINDRICAL_SURFACE ( 'NONE', #119, 3.999999999999996447 ) ;
#213 = LOCAL_TIME ( 13, 42, 28.00000000000000000, #177 ) ;
#214 = DIRECTION ( 'NONE',  ( 3.491481338843133355E-15, 1.292682732433316192E-16, 1.000000000000000000 ) ) ;
#215 = DIRECTION ( 'NONE',  ( 0.0000000000000000000, -1.000000000000000000, 0.0000000000000000000 ) ) ;
#216 = ORIENTED_EDGE ( 'NONE', *, *, #138, .F. ) ;
#217 = AXIS2_PLACEMENT_3D ( 'NONE', #23, #205, #37 ) ;
#218 = VERTEX_POINT ( 'NONE', #168 ) ;
#219 = DIRECTION ( 'NONE',  ( 3.491481338843133355E-15, 1.292682732433316192E-16, 1.000000000000000000 ) ) ;
#220 = ADVANCED_FACE ( 'NONE', ( #46 ), #118, .F. ) ;
#221 = AXIS2_PLACEMENT_3D ( 'NONE', #3, #148, #98 ) ;
#222 = APPLICATION_CONTEXT ( 'configuration controlled 3d designs of mechanical parts and assemblies' ) ;
#223 = PERSON_AND_ORGANIZATION ( #7, #117 ) ;
ENDSEC;
END-ISO-10303-21;
