ISO-10303-21;
HEADER;
FILE_DESCRIPTION (( 'STEP AP203' ),
    '1' );
FILE_NAME ('392830.step',
    '2021-12-09T12:42:27',
    ( '' ),
    ( '' ),
    'SwSTEP 2.0',
    'SolidWorks 2019',
    '' );
FILE_SCHEMA (( 'CONFIG_CONTROL_DESIGN' ));
ENDSEC;

DATA;
#1 = EDGE_LOOP ( 'NONE', ( #207 ) ) ;
#2 = EDGE_CURVE ( 'NONE', #77, #77, #35, .T. ) ;
#3 = DIRECTION ( 'NONE',  ( 3.491481338843133355E-15, 2.731904398097942737E-16, 1.000000000000000000 ) ) ;
#4 = APPROVAL_PERSON_ORGANIZATION ( #198, #113, #136 ) ;
#5 = LOCAL_TIME ( 13, 42, 27.00000000000000000, #96 ) ;
#6 = DIRECTION ( 'NONE',  ( 0.0000000000000000000, -1.000000000000000000, 0.0000000000000000000 ) ) ;
#7 = ADVANCED_FACE ( 'NONE', ( #221 ), #29, .F. ) ;
#8 = MANIFOLD_SOLID_BREP ( 'Corps-Déplacer/Copier1[1]', #220 ) ;
#9 = DIRECTION ( 'NONE',  ( 1.000000000000000000, 0.0000000000000000000, -3.469446951953614189E-15 ) ) ;
#10 = MANIFOLD_SOLID_BREP ( 'Corps-Déplacer/Copier1[2]', #46 ) ;
#11 = DIRECTION ( 'NONE',  ( 3.491481338843133355E-15, -0.0000000000000000000, 1.000000000000000000 ) ) ;
#12 = VERTEX_POINT ( 'NONE', #202 ) ;
#13 = ORGANIZATION ( 'UNSPECIFIED', 'UNSPECIFIED', '' ) ;
#14 = CARTESIAN_POINT ( 'NONE',  ( 4.538925740496073362E-14, 3.551475717527325607E-15, 13.00000000000000000 ) ) ;
#15 = APPROVAL_DATE_TIME ( #92, #116 ) ;
#16 = APPROVAL_ROLE ( '' ) ;
#17 = EDGE_CURVE ( 'NONE', #141, #141, #95, .T. ) ;
#18 = DIRECTION ( 'NONE',  ( 0.0000000000000000000, -1.000000000000000000, 0.0000000000000000000 ) ) ;
#19 = FACE_OUTER_BOUND ( 'NONE', #193, .T. ) ;
#20 = AXIS2_PLACEMENT_3D ( 'NONE', #27, #199, #133 ) ;
#21 = PRODUCT_DEFINITION_SHAPE ( 'NONE', 'NONE',  #106 ) ;
#22 = CC_DESIGN_PERSON_AND_ORGANIZATION_ASSIGNMENT ( #219, #123, ( #106 ) ) ;
#23 = PERSON_AND_ORGANIZATION ( #50, #13 ) ;
#24 = AXIS2_PLACEMENT_3D ( 'NONE', #91, #38, #164 ) ;
#25 = ORIENTED_EDGE ( 'NONE', *, *, #2, .F. ) ;
#26 = VERTEX_POINT ( 'NONE', #173 ) ;
#27 = CARTESIAN_POINT ( 'NONE',  ( 3.491481338843134144E-15, 0.0000000000000000000, 1.000000000000000222 ) ) ;
#28 = VERTEX_POINT ( 'NONE', #54 ) ;
#29 = PLANE ( 'NONE',  #97 ) ;
#30 = VERTEX_POINT ( 'NONE', #125 ) ;
#31 = CC_DESIGN_APPROVAL ( #116, ( #103 ) ) ;
#32 = DIRECTION ( 'NONE',  ( -1.028235657227602038E-30, -1.000000000000000000, -2.944983969378159050E-16 ) ) ;
#33 = ADVANCED_FACE ( 'NONE', ( #153 ), #216, .F. ) ;
#34 = APPROVAL_ROLE ( '' ) ;
#35 = CIRCLE ( 'NONE', #67, 2.999999999999989786 ) ;
#36 = LOCAL_TIME ( 13, 42, 27.00000000000000000, #68 ) ;
#37 = CALENDAR_DATE ( 2021, 9, 12 ) ;
#38 = DIRECTION ( 'NONE',  ( 3.491481338843133355E-15, -2.944983969378159050E-16, 1.000000000000000000 ) ) ;
#39 = CARTESIAN_POINT ( 'NONE',  ( 4.538925740496072100E-14, -2.999999999999986233, 12.99999999999999645 ) ) ;
#40 = CALENDAR_DATE ( 2021, 9, 12 ) ;
#41 = ADVANCED_FACE ( 'NONE', ( #45 ), #201, .F. ) ;
#42 = AXIS2_PLACEMENT_3D ( 'NONE', #181, #52, #189 ) ;
#43 = EDGE_CURVE ( 'NONE', #28, #28, #148, .T. ) ;
#44 = EDGE_LOOP ( 'NONE', ( #143 ) ) ;
#45 = FACE_OUTER_BOUND ( 'NONE', #53, .T. ) ;
#46 = CLOSED_SHELL ( 'NONE', ( #146, #33, #80, #170 ) ) ;
#47 = CONICAL_SURFACE ( 'NONE', #126, 3.000000000000004441, 0.7853981633974453924 ) ;
#48 = COORDINATED_UNIVERSAL_TIME_OFFSET ( 1, 0, .AHEAD. ) ;
#49 = ORIENTED_EDGE ( 'NONE', *, *, #17, .T. ) ;
#50 = PERSON ( 'UNSPECIFIED', 'UNSPECIFIED', 'UNSPECIFIED', ('UNSPECIFIED'), ('UNSPECIFIED'), ('UNSPECIFIED') ) ;
#51 = APPROVAL_STATUS ( 'not_yet_approved' ) ;
#52 = DIRECTION ( 'NONE',  ( 3.491481338843133355E-15, 2.731904398097942737E-16, 1.000000000000000000 ) ) ;
#53 = EDGE_LOOP ( 'NONE', ( #25 ) ) ;
#54 = CARTESIAN_POINT ( 'NONE',  ( 3.000000000000003553, 0.0000000000000000000, 0.9999999999999897859 ) ) ;
#55 = CIRCLE ( 'NONE', #176, 2.400000000000004352 ) ;
#56 = CALENDAR_DATE ( 2021, 9, 12 ) ;
#57 = DATE_AND_TIME ( #37, #5 ) ;
#58 = DIRECTION ( 'NONE',  ( 1.000000000000000000, 0.0000000000000000000, -3.491481338843133355E-15 ) ) ;
#59 =( GEOMETRIC_REPRESENTATION_CONTEXT ( 3 ) GLOBAL_UNCERTAINTY_ASSIGNED_CONTEXT ( ( #177 ) ) GLOBAL_UNIT_ASSIGNED_CONTEXT ( ( #157, #214, #138 ) ) REPRESENTATION_CONTEXT ( 'NONE', 'WORKASPACE' ) );
#60 = ADVANCED_FACE ( 'NONE', ( #135, #119 ), #47, .T. ) ;
#61 = APPROVAL_PERSON_ORGANIZATION ( #128, #165, #34 ) ;
#62 = SECURITY_CLASSIFICATION ( '', '', #151 ) ;
#63 = ORIENTED_EDGE ( 'NONE', *, *, #94, .F. ) ;
#64 = CARTESIAN_POINT ( 'NONE',  ( 1.899365848330664293E-13, -8.640757915698250758E-15, 54.39999999999999858 ) ) ;
#65 = CALENDAR_DATE ( 2021, 9, 12 ) ;
#66 = CARTESIAN_POINT ( 'NONE',  ( 1.899365848330664293E-13, -8.640757915698250758E-15, 54.39999999999999858 ) ) ;
#67 = AXIS2_PLACEMENT_3D ( 'NONE', #69, #213, #150 ) ;
#68 = COORDINATED_UNIVERSAL_TIME_OFFSET ( 1, 0, .AHEAD. ) ;
#69 = CARTESIAN_POINT ( 'NONE',  ( 4.538925740496072731E-14, 3.551475717527327185E-15, 12.99999999999999822 ) ) ;
#70 = CC_DESIGN_DATE_AND_TIME_ASSIGNMENT ( #196, #174, ( #106 ) ) ;
#71 = MECHANICAL_CONTEXT ( 'NONE', #191, 'mechanical' ) ;
#72 = DIRECTION ( 'NONE',  ( 9.538393225462449760E-31, -1.000000000000000000, 2.731904398097942737E-16 ) ) ;
#73 = CARTESIAN_POINT ( 'NONE',  ( 2.000000000000000000, 0.0000000000000000000, -6.982962677686266711E-15 ) ) ;
#74 = CARTESIAN_POINT ( 'NONE',  ( 0.0000000000000000000, 0.0000000000000000000, 0.0000000000000000000 ) ) ;
#75 = DATE_TIME_ROLE ( 'classification_date' ) ;
#76 = PRODUCT_RELATED_PRODUCT_CATEGORY ( 'detail', '', ( #188 ) ) ;
#77 = VERTEX_POINT ( 'NONE', #39 ) ;
#78 = CARTESIAN_POINT ( 'NONE',  ( 1.920314736363723472E-13, -8.817456953860941711E-15, 55.00000000000000000 ) ) ;
#79 = SHAPE_DEFINITION_REPRESENTATION ( #21, #192 ) ;
#80 = ADVANCED_FACE ( 'NONE', ( #159, #111 ), #155, .T. ) ;
#81 = EDGE_LOOP ( 'NONE', ( #108 ) ) ;
#82 = CIRCLE ( 'NONE', #114, 2.999999999999990230 ) ;
#83 = EDGE_LOOP ( 'NONE', ( #129 ) ) ;
#84 = PERSON_AND_ORGANIZATION_ROLE ( 'design_supplier' ) ;
#85 = DIRECTION ( 'NONE',  ( 3.491481338843133355E-15, 2.731904398097942737E-16, 1.000000000000000000 ) ) ;
#86 = PERSON_AND_ORGANIZATION ( #50, #13 ) ;
#87 = EDGE_CURVE ( 'NONE', #12, #12, #55, .T. ) ;
#88 = DIRECTION ( 'NONE',  ( -3.491481338843133355E-15, 2.944983969378159050E-16, -1.000000000000000000 ) ) ;
#89 = AXIS2_PLACEMENT_3D ( 'NONE', #175, #137, #58 ) ;
#90 = DIRECTION ( 'NONE',  ( 1.000000000000000000, 0.0000000000000000000, 0.0000000000000000000 ) ) ;
#91 = CARTESIAN_POINT ( 'NONE',  ( 1.920314736363723472E-13, -8.817456953860941711E-15, 55.00000000000000000 ) ) ;
#92 = DATE_AND_TIME ( #56, #36 ) ;
#93 = DIRECTION ( 'NONE',  ( 0.0000000000000000000, 0.0000000000000000000, 1.000000000000000000 ) ) ;
#94 = EDGE_CURVE ( 'NONE', #26, #26, #82, .T. ) ;
#95 = CIRCLE ( 'NONE', #89, 2.000000000000000000 ) ;
#96 = COORDINATED_UNIVERSAL_TIME_OFFSET ( 1, 0, .AHEAD. ) ;
#97 = AXIS2_PLACEMENT_3D ( 'NONE', #127, #195, #154 ) ;
#98 = EDGE_LOOP ( 'NONE', ( #63 ) ) ;
#99 = APPROVAL_DATE_TIME ( #57, #165 ) ;
#100 = CARTESIAN_POINT ( 'NONE',  ( -1.430758983819365362E-30, 2.999999999999995559, -4.097856597146907942E-16 ) ) ;
#101 = CC_DESIGN_PERSON_AND_ORGANIZATION_ASSIGNMENT ( #86, #132, ( #62 ) ) ;
#102 = ORIENTED_EDGE ( 'NONE', *, *, #43, .F. ) ;
#103 = PRODUCT_DEFINITION_FORMATION_WITH_SPECIFIED_SOURCE ( 'ANY', '', #188, .NOT_KNOWN. ) ;
#104 = PERSON_AND_ORGANIZATION_ROLE ( 'creator' ) ;
#105 = DIRECTION ( 'NONE',  ( -9.538393225462449760E-31, 1.000000000000000000, -2.731904398097942737E-16 ) ) ;
#106 = PRODUCT_DEFINITION ( 'UNKNOWN', '', #103, #161 ) ;
#107 = APPLICATION_PROTOCOL_DEFINITION ( 'international standard', 'config_control_design', 1994, #191 ) ;
#108 = ORIENTED_EDGE ( 'NONE', *, *, #2, .T. ) ;
#109 = DIRECTION ( 'NONE',  ( 3.491481338843133355E-15, -2.944983969378159050E-16, 1.000000000000000000 ) ) ;
#110 = CALENDAR_DATE ( 2021, 9, 12 ) ;
#111 = FACE_OUTER_BOUND ( 'NONE', #118, .T. ) ;
#112 = DATE_AND_TIME ( #40, #145 ) ;
#113 = APPROVAL ( #51, 'UNSPECIFIED' ) ;
#114 = AXIS2_PLACEMENT_3D ( 'NONE', #14, #85, #6 ) ;
#115 = AXIS2_PLACEMENT_3D ( 'NONE', #74, #93, #90 ) ;
#116 = APPROVAL ( #217, 'UNSPECIFIED' ) ;
#117 = ORIENTED_EDGE ( 'NONE', *, *, #162, .T. ) ;
#118 = EDGE_LOOP ( 'NONE', ( #102 ) ) ;
#119 = FACE_OUTER_BOUND ( 'NONE', #169, .T. ) ;
#120 = AXIS2_PLACEMENT_3D ( 'NONE', #64, #179, #18 ) ;
#121 = FACE_OUTER_BOUND ( 'NONE', #194, .T. ) ;
#122 = FACE_OUTER_BOUND ( 'NONE', #83, .T. ) ;
#123 = PERSON_AND_ORGANIZATION_ROLE ( 'creator' ) ;
#124 = CARTESIAN_POINT ( 'NONE',  ( 4.538925740496072731E-14, 3.551475717527324818E-15, 12.99999999999999822 ) ) ;
#125 = CARTESIAN_POINT ( 'NONE',  ( 1.899365848330664293E-13, -3.000000000000012879, 54.39999999999999858 ) ) ;
#126 = AXIS2_PLACEMENT_3D ( 'NONE', #66, #88, #218 ) ;
#127 = CARTESIAN_POINT ( 'NONE',  ( 1.920314736363723472E-13, -8.817456953860941711E-15, 55.00000000000000000 ) ) ;
#128 = PERSON_AND_ORGANIZATION ( #50, #13 ) ;
#129 = ORIENTED_EDGE ( 'NONE', *, *, #162, .F. ) ;
#130 = APPROVAL_PERSON_ORGANIZATION ( #184, #116, #16 ) ;
#131 = FACE_OUTER_BOUND ( 'NONE', #98, .T. ) ;
#132 = PERSON_AND_ORGANIZATION_ROLE ( 'classification_officer' ) ;
#133 = DIRECTION ( 'NONE',  ( 1.000000000000000000, 0.0000000000000000000, -3.491481338843133355E-15 ) ) ;
#134 = COORDINATED_UNIVERSAL_TIME_OFFSET ( 1, 0, .AHEAD. ) ;
#135 = FACE_BOUND ( 'NONE', #212, .T. ) ;
#136 = APPROVAL_ROLE ( '' ) ;
#137 = DIRECTION ( 'NONE',  ( 3.491481338843133355E-15, -0.0000000000000000000, 1.000000000000000000 ) ) ;
#138 =( NAMED_UNIT ( * ) SI_UNIT ( $, .STERADIAN. ) SOLID_ANGLE_UNIT ( ) );
#139 = PERSON_AND_ORGANIZATION_ROLE ( 'design_owner' ) ;
#140 = LOCAL_TIME ( 13, 42, 27.00000000000000000, #168 ) ;
#141 = VERTEX_POINT ( 'NONE', #73 ) ;
#142 = DIRECTION ( 'NONE',  ( 0.0000000000000000000, -1.000000000000000000, 0.0000000000000000000 ) ) ;
#143 = ORIENTED_EDGE ( 'NONE', *, *, #87, .T. ) ;
#144 = LOCAL_TIME ( 13, 42, 27.00000000000000000, #48 ) ;
#145 = LOCAL_TIME ( 13, 42, 27.00000000000000000, #134 ) ;
#146 = ADVANCED_FACE ( 'NONE', ( #131, #121 ), #204, .T. ) ;
#147 = EDGE_LOOP ( 'NONE', ( #49 ) ) ;
#148 = CIRCLE ( 'NONE', #186, 3.000000000000000000 ) ;
#149 = ORIENTED_EDGE ( 'NONE', *, *, #87, .F. ) ;
#150 = DIRECTION ( 'NONE',  ( -2.054325274013058466E-30, -1.000000000000000000, -5.782411586589376374E-16 ) ) ;
#151 = SECURITY_CLASSIFICATION_LEVEL ( 'unclassified' ) ;
#152 = ADVANCED_FACE ( 'NONE', ( #122, #183 ), #171, .T. ) ;
#153 = FACE_OUTER_BOUND ( 'NONE', #1, .T. ) ;
#154 = DIRECTION ( 'NONE',  ( 1.028235657227602038E-30, 1.000000000000000000, 2.944983969378159050E-16 ) ) ;
#155 = TOROIDAL_SURFACE ( 'NONE', #20, 2.000000000000000000, 1.000000000000000000 ) ;
#156 = DIRECTION ( 'NONE',  ( -3.491481338843133355E-15, -2.731904398097942737E-16, -1.000000000000000000 ) ) ;
#157 =( LENGTH_UNIT ( ) NAMED_UNIT ( * ) SI_UNIT ( .MILLI., .METRE. ) );
#158 = PERSON_AND_ORGANIZATION ( #50, #13 ) ;
#159 = FACE_OUTER_BOUND ( 'NONE', #147, .T. ) ;
#160 = PLANE ( 'NONE',  #208 ) ;
#161 = DESIGN_CONTEXT ( 'detailed design', #206, 'design' ) ;
#162 = EDGE_CURVE ( 'NONE', #30, #30, #209, .T. ) ;
#163 = ORIENTED_EDGE ( 'NONE', *, *, #17, .F. ) ;
#164 = DIRECTION ( 'NONE',  ( 0.0000000000000000000, -1.000000000000000000, 0.0000000000000000000 ) ) ;
#165 = APPROVAL ( #222, 'UNSPECIFIED' ) ;
#166 = PERSON_AND_ORGANIZATION ( #50, #13 ) ;
#167 = CARTESIAN_POINT ( 'NONE',  ( 4.538925740496072731E-14, 3.551475717527324818E-15, 12.99999999999999822 ) ) ;
#168 = COORDINATED_UNIVERSAL_TIME_OFFSET ( 1, 0, .AHEAD. ) ;
#169 = EDGE_LOOP ( 'NONE', ( #117 ) ) ;
#170 = ADVANCED_FACE ( 'NONE', ( #19 ), #160, .F. ) ;
#171 = CYLINDRICAL_SURFACE ( 'NONE', #24, 2.999999999999997335 ) ;
#172 = CC_DESIGN_APPROVAL ( #113, ( #106 ) ) ;
#173 = CARTESIAN_POINT ( 'NONE',  ( 4.538925740496073362E-14, -2.999999999999986677, 13.00000000000000000 ) ) ;
#174 = DATE_TIME_ROLE ( 'creation_date' ) ;
#175 = CARTESIAN_POINT ( 'NONE',  ( 0.0000000000000000000, 0.0000000000000000000, 0.0000000000000000000 ) ) ;
#176 = AXIS2_PLACEMENT_3D ( 'NONE', #78, #197, #142 ) ;
#177 = UNCERTAINTY_MEASURE_WITH_UNIT (LENGTH_MEASURE( 1.000000000000000082E-05 ), #157, 'distance_accuracy_value', 'NONE');
#178 = CC_DESIGN_DATE_AND_TIME_ASSIGNMENT ( #112, #75, ( #62 ) ) ;
#179 = DIRECTION ( 'NONE',  ( 3.491481338843133355E-15, -2.944983969378159050E-16, 1.000000000000000000 ) ) ;
#180 = APPLICATION_PROTOCOL_DEFINITION ( 'international standard', 'config_control_design', 1994, #206 ) ;
#181 = CARTESIAN_POINT ( 'NONE',  ( 4.538925740496072731E-14, 3.551475717527324818E-15, 12.99999999999999822 ) ) ;
#182 = CC_DESIGN_PERSON_AND_ORGANIZATION_ASSIGNMENT ( #158, #139, ( #188 ) ) ;
#183 = FACE_OUTER_BOUND ( 'NONE', #81, .T. ) ;
#184 = PERSON_AND_ORGANIZATION ( #50, #13 ) ;
#185 = CARTESIAN_POINT ( 'NONE',  ( 3.491481338843134144E-15, 0.0000000000000000000, 1.000000000000000222 ) ) ;
#186 = AXIS2_PLACEMENT_3D ( 'NONE', #185, #11, #9 ) ;
#187 = CC_DESIGN_PERSON_AND_ORGANIZATION_ASSIGNMENT ( #166, #84, ( #103 ) ) ;
#188 = PRODUCT ( '392830', '392830', '', ( #71 ) ) ;
#189 = DIRECTION ( 'NONE',  ( 0.0000000000000000000, -1.000000000000000000, 0.0000000000000000000 ) ) ;
#190 = ORIENTED_EDGE ( 'NONE', *, *, #43, .T. ) ;
#191 = APPLICATION_CONTEXT ( 'configuration controlled 3d designs of mechanical parts and assemblies' ) ;
#192 = ADVANCED_BREP_SHAPE_REPRESENTATION ( '392830', ( #8, #10, #115 ), #59 ) ;
#193 = EDGE_LOOP ( 'NONE', ( #163 ) ) ;
#194 = EDGE_LOOP ( 'NONE', ( #190 ) ) ;
#195 = DIRECTION ( 'NONE',  ( -3.491481338843133355E-15, 2.944983969378159050E-16, -1.000000000000000000 ) ) ;
#196 = DATE_AND_TIME ( #65, #144 ) ;
#197 = DIRECTION ( 'NONE',  ( 3.491481338843133355E-15, -2.944983969378159050E-16, 1.000000000000000000 ) ) ;
#198 = PERSON_AND_ORGANIZATION ( #50, #13 ) ;
#199 = DIRECTION ( 'NONE',  ( 3.491481338843133355E-15, -0.0000000000000000000, 1.000000000000000000 ) ) ;
#200 = APPROVAL_DATE_TIME ( #203, #113 ) ;
#201 = PLANE ( 'NONE',  #211 ) ;
#202 = CARTESIAN_POINT ( 'NONE',  ( 1.920314736363723472E-13, -2.400000000000013234, 55.00000000000000000 ) ) ;
#203 = DATE_AND_TIME ( #110, #140 ) ;
#204 = CYLINDRICAL_SURFACE ( 'NONE', #42, 2.999999999999993339 ) ;
#205 = AXIS2_PLACEMENT_3D ( 'NONE', #124, #156, #105 ) ;
#206 = APPLICATION_CONTEXT ( 'configuration controlled 3d designs of mechanical parts and assemblies' ) ;
#207 = ORIENTED_EDGE ( 'NONE', *, *, #94, .T. ) ;
#208 = AXIS2_PLACEMENT_3D ( 'NONE', #100, #3, #72 ) ;
#209 = CIRCLE ( 'NONE', #120, 3.000000000000004441 ) ;
#210 = CC_DESIGN_APPROVAL ( #165, ( #62 ) ) ;
#211 = AXIS2_PLACEMENT_3D ( 'NONE', #167, #109, #32 ) ;
#212 = EDGE_LOOP ( 'NONE', ( #149 ) ) ;
#213 = DIRECTION ( 'NONE',  ( 3.491481338843133355E-15, -2.944983969378159050E-16, 1.000000000000000000 ) ) ;
#214 =( NAMED_UNIT ( * ) PLANE_ANGLE_UNIT ( ) SI_UNIT ( $, .RADIAN. ) );
#215 = CC_DESIGN_PERSON_AND_ORGANIZATION_ASSIGNMENT ( #23, #104, ( #103 ) ) ;
#216 = PLANE ( 'NONE',  #205 ) ;
#217 = APPROVAL_STATUS ( 'not_yet_approved' ) ;
#218 = DIRECTION ( 'NONE',  ( 0.0000000000000000000, 1.000000000000000000, 0.0000000000000000000 ) ) ;
#219 = PERSON_AND_ORGANIZATION ( #50, #13 ) ;
#220 = CLOSED_SHELL ( 'NONE', ( #41, #152, #60, #7 ) ) ;
#221 = FACE_OUTER_BOUND ( 'NONE', #44, .T. ) ;
#222 = APPROVAL_STATUS ( 'not_yet_approved' ) ;
#223 = CC_DESIGN_SECURITY_CLASSIFICATION ( #62, ( #103 ) ) ;
ENDSEC;
END-ISO-10303-21;
